» » »

Sweet Home Alabama Tabs (ver.9)

Artists:  A B C D E F G H I J K L M N O P Q R S T U V W X Y Z # 

Sweet Home Alabama Tabs (ver.9)

Lynyrd Skynyrd
Rating:
0/5 (0 votes)

Tabs too difficult? Try these video lessons and learn fast.
                (Live)
Lynyrd skynyrd
Sweet home alabama (live solo)

I noticed that there was not a tab for this solo so i 
thought i would tab it,This is the last solo in sweet
home alabama that is played by allen collins, he uses
alot of tricks in this so it might not sound exacted,
i did this by ear on myself and when you play this solo
add some muting to sound it a bit better.


brp  =  bend then release then pull-off
b    =  bend
h    =  hammer-on
/    =  slide
~    =  vibrate



Guitar 1, Solo number 4 by allen collins:
|-------------------------------------------------------|
|-------------------------------------------------------|
|-14b-14b~---14b-14b-14-12----12-12---12----12-12----12-|
|--------------------------14------------14-------14----|
|-------------------------------------------------------|
|-------------------------------------------------------|


|---------------------------------------------------------------------|
|---------------------------------------------------------------------|
|-12----14b-14~--12----14b-14b-14b-14-12----12~-12--12----12-12----12-|
|----14-------------14-------------------14------------14-------14----|
|---------------------------------------------------------------------|
|---------------------------------------------------------------------|


|---------------------------------------------------------------------------------|
|---------------------------------------------------------------------------------|
|-12------------------------------------------------------------------------------|
|----14-12-12~-12~-12-12-12b-12b-12b-12brp10--------------------------------------|
|--------------------------------------------10~-10--10-10-10--10-10-12~-12-12-12-|
|---------------------------------------------------------------------------------|

-----------------------|
-----------------------|
-----------------------|
-----------------------|
12-12b-12b-12brp10~-10-|
-----------------------|


|-------------------------------------------------------------------------------------|
|--------------------------------15---15---15---15---15---15--------------------------|
|-------------------12----12--14b--14b--14b--14b--14b--14b---12~-12-12----12-12----12-|
|-------12----12h14----14----------------------------------------------14-------14----|
|-12/14----14-------------------------------------------------------------------------|
|-------------------------------------------------------------------------------------|


|-------15b-15~-15b-15b-15b-15b-15b-15br-----------------------------|
|--------------------------------------------------------------------|
|-12----------------------------------------12~-12-12----12-12----12-|
|----14----------------------------------14-----------14-------14----|
|--------------------------------------------------------------------|
|--------------------------------------------------------------------|


|-------15-------15-------15-------15-------15-------15-------15-------15--|
|-15h17----15h17----15h17----15h17----15h17----15h17----15h17----15h17-----|
|--------------------------------------------------------------------------|
|--------------------------------------------------------------------------|
|--------------------------------------------------------------------------|
|--------------------------------------------------------------------------|


|------------------------------------------------------|
|------------------------------------------------------|
|-14b-12----12~-12----12h14-14-14-12----12-14b-14-12~~-|
|--------14--------14----------------14----------------|
|------------------------------------------------------|
|------------------------------------------------------|



Guitar 2:
Play this over the solo
|---------------------------------------------|
|---------------------------------------------|
|---------------------------------------------|
|-7-7-9-7----5-5-7-5-----------------0h2p0--5-|
|-5-5-5-5----3-3-3-3----5-5-7----0h2--------3-|
|-----------------------3-3-3-----------------|


That's it...
            
Tabs too difficult? Try these video lessons and learn fast.


comments powered by Disqus
↑ Back to top | Tablatures and chords are parodies/interpretations of the original songs. You may use it for private study, scholarship, research or language learning purposes only