>
 >
Mr. Banker

Mr. Banker Guitar Tabs

Lynyrd Skynyrd - Mr. Banker chords, tabs, tablatures, lyrics

Guitar lessons | Add/correct | Request | Top 50 tabs Artists:  A B C D E F G H I J K L M N O P Q R S T U V W X Y Z 0-9

Mr. Banker Guitar Tabs – Lynyrd Skynyrd

CD, Sheet music, Poster

Do you like Mr. Banker? Share with your friends now
Tabs
h   - hammer on
p   - pull off
b   - bend string up
bb  - 1 1/2 tone bend
H   - hold bend
r   - release bend
/   - slides
~   - vibrato
x   - play 'note' with heavy damping
(*) - harmonics


First, you have to tune the first string in D

D----------------------------------------------------------|
B------(8)\7---5-----/9----/9~-----------------------------|
G----------------------------------------------------------|
D----------------------------------------------------------|
A----------------------------------------------------------|
E----------------------------------------------------------|

D----------------------------7------7/9\7------------------|
B------(8)\7---5----/7----------7-----------7--------------|
G-----------------------------------------------6/7\6\4~---|
D----------------------------------------------------------|
A----------------------------------------------------------|
E----------------------------------------------------------|

D-------------------------9---------9------/12-------------|
B------(8)\7---5------/9--------/9-----9--------12\--------|
G----------------------------------------------------------|
D----------------------------------------------------------|
A----------------------------------------------------------|
E----------------------------------------------------------|


D----------------------------------------------------------|
B------12\10--9---/10---/10--/10-9---/12-------------------|
G------------------------------------------11/12\11\9~-----|
D----------------------------------------------------------|
A----------------------------------------------------------|
E----------------------------------------------------------|


D------------9\7------9---12/14~-------/(17)----/14~-------|
B-------7/9--------9---------------------------------------|
G----------------------------------------------------------|
D----------------------------------------------------------|
A----------------------------------------------------------|
E----------------------------------------------------------|

D----------4-----------------------------------------------|
B------/4--------4/5\4-------------------------------------|
G------------------------4\2--0--2/4---------2/4\2---------|
D----------------------------------------------------------|
A----------------------------------------------------------|
E----------------------------------------------------------|

D------------------------9---------------------------------|
B--------------------/9------/9\7--5---/5~-----------------|
G-----7/9\7~/9---------------------------------------------|
D----------------------------------------------------------|
A----------------------------------------------------------|
E----------------------------------------------------------|

D----------------------------------------------------------|
B---------2------3--------4--------------------------------|
G-----/2-----/3------/4--------------------//////--(24)----|
D-------------------------------/////--------------(24)----|
A----------------------------------------------------------|
E----------------------------------------------------------|


Verse 1


D----------------------------------------------------------|
B----------------------------------------------------------|
G---------------------------------/8----6/7\6---4~---------|
D----------7-----8-----9-----------------------------------|
A-------7-----8-----9--------------------------------------|
E----------------------------------------------------------|

D----------------------------------------------------------|
B----------------------------------------------------------|
G----------------------------------------------------------|
D----------5-----6-----7------/10----9/10\9---7~-----------|
A-------5-----6-----7--------------------------------------|
E----------------------------------------------------------|

D----------------------------------------------------------|
B----------------------------------------------------------|
G----------------------------------------------------------|
D-----------7-----8------9/8\9~---------9\7~---------------|
A-------/7-----8-----9-------------------------------------|
E----------------------------------------------------------|


D----------------------------------------------------------|
B-------------2------3------4\2--0--/4--/4---//////////----|
G---------/2-----/3-----4---------------------//////////---|
D----------------------------------------------------------|
A----------------------------------------------------------|
E----------------------------------------------------------|




Verse 2

D---------------------------------------9------------------|
B-----------------------------------/7---------------------|
G--------------------------------------------7\6---4~------|
D----------7-----8------9----------------------------------|
A------/7-----8-----9--------------------------------------|
E----------------------------------------------------------|


D----------------------------------------------------------|
B----------------------------------------------------------|
G----------------------------------------------------------|
D----------5-----6-----7------------4/5\4---2~-------------|
A-------5-----6-----7--------------------------------------|
E----------------------------------------------------------|

D----------------------------------------------------------|
B----------------------------------------------------------|
G----------------------------------------------------------|
D-----------7-----8------9\8/9~---------9\7~---------------|
A-------/7-----8-----9-------------------------------------|
E----------------------------------------------------------|


D----------------------------------------------------------|
B----------------------------------------------------------|
G----------7-------8--------/9\7/9-----7\6--4---/9~--------|
D------/7-----/8-------/9----------------------------------|
A----------------------------------------------------------|
E----------------------------------------------------------|


D----------------------------------------------------------|
B---------5----6-----7~------------------------------------|
G------/5---/6---/7----------------------------------------|
D----------------------------------------------------------|
A----------------------------------------------------------|
E----------------------------------------------------------|




Solo :


D-------9\7--6---/9--/9------------9\7--6-------7-----7/9--|
B-------------------------------------------/7-----7-------|
G----------------------------------------------------------|
D----------------------------------------------------------|
A----------------------------------------------------------|
E----------------------------------------------------------|

D----------------------------------------------------------|
B-----7---7------------------------------------------------|
G--------------6/7\6--4-----/8~----------------------------|
D----------------------------------------------------------|
A----------------------------------------------------------|
E----------------------------------------------------------|

D---------------------9------------9------------9----------|
B------(8)\7--5---/9-----/9\7--/9-----/9\7--/9-------------|
G----------------------------------------------------------|
D----------------------------------------------------------|
A----------------------------------------------------------|
E----------------------------------------------------------|

D----------------9--------------9--------------------------|
B------/9\7--/9-------/9\7--/9------9--/10--/10--/10-9-----|
G----------------------------------------------------------|
D----------------------------------------------------------|
A----------------------------------------------------------|
E----------------------------------------------------------|

D------------------------------------9\7------9------------|
B-------/12----------------------/9-------/9---------------|
G-------------11/12\11---9~--------------------------------|
D----------------------------------------------------------|
A----------------------------------------------------------|
E----------------------------------------------------------|

D-----/14~-----/17\16-----14~------------------------------|
B----------------------------------------7-----7/10~-------|
G------------------------------------/7-----7--------------|
D----------------------------------------------------------|
A----------------------------------------------------------|
E----------------------------------------------------------|

D----------------------------------------------------------|
B------7-----------------4---------------------------------|
G---------6/7\6--4~---------2/4\2---2/4\2------------------|
D------------------------------------------2~--------------|
A----------------------------------------------------------|
E----------------------------------------------------------|


D------------------------9---------------------------------|
B--------------------/9------/9\7--5---/5~-----------------|
G------(/5-6-7)--------------------------------------------|
D----------------------------------------------------------|
A----------------------------------------------------------|
E----------------------------------------------------------|


D----------------------------------------------------------|
B---------5-----6------7~----------------------------------|
G------/5---/6-----/7--------------------------------------|
D----------------------------------------------------------|
A----------------------------------------------------------|
E----------------------------------------------------------|

D-------/14~--14~---14~-----14~------14~--14~---/17--/14~--|
B--------------------------------12------------------------|
G----------------------------------------------------------|
D----------------------------------------------------------|
A----------------------------------------------------------|
E----------------------------------------------------------|


D-----/14~--13---/16~--------------------------------------|
B-----------------------------19---------------------------|
G------------------------/19-------18/19\18---16--16~------|
D----------------------------------------------------------|
A----------------------------------------------------------|
E----------------------------------------------------------|


D--------------------------------/12~--12~--12~-------12---|
B----------19---------16/------------------------/12-------|
G-----/19--------16----------------------------------------|
D----------------------------------------------------------|
A----------------------------------------------------------|
E----------------------------------------------------------|

D---12--------12---12------/12--12--13----14~---14~---14~--|
B--------/12---------------------------------14~---14~-----|
G----------------------------------------------------------|
D----------------------------------------------------------|
A----------------------------------------------------------|
E----------------------------------------------------------|

D----14~-----14~-----14~-----------/22---------------------|
B--------14~-----14~-----14~-------------22\---------------|
G----------------------------------------------------------|
D----------------------------------------------------------|
A----------------------------------------------------------|
E----------------------------------------------------------|


D----------------------------------------------------------|
B----------17----------------------------------------------|
G------17-------14~--------------12/14\12~-----------------|
D----------------------------------------------------------|
A----------------------------------------------------------|
E----------------------------------------------------------|


D----------------------------------------------------------|
B------19\17--16---/19~---------My guitar doesn'T reach----|
G----------------------------------------------------------|
D----------------------------------------------------------|
A----------------------------------------------------------|
E----------------------------------------------------------|


D----------------------------------------------------------|
B-------19\17-16--/19~--------12\10-9--/12\10---////-------|
G----------------------------------------------------------|
D----------------------------------------------------------|
A----------------------------------------------------------|
E----------------------------------------------------------|

D----------------------------------------------------------|
B----------------------------------------------------------|
G----------------------------------------------------------|
D-------------------------2-4b--2--------------------------|
A------------------2--4-------------4----------/7~---------|
E------0--0---3/4-----------------------3--4---------------|


D----------------------------------------------------------|
B----------5------6-------7/6\7~----//////////////---------|
G------/5-----/6-----/7------------------------------------|
D----------------------------------------------------------|
A----------------------------------------------------------|
E----------------------------------------------------------|




Verse 3 :

D-----------------------------------------7\\\-------------|
B-----------------------------------/7---------------------|
G----------------------------------------------------------|
D-----------7-----8-------9--------------------------------|
A-------/7-----8------9------------------------------------|
E----------------------------------------------------------|


D----------------------------------------------------------|
B----------------------------------------------------------|
G------6/7\6---4-------------------------------------------|
D--------------------4/5\4----2~---------------------------|
A----------------------------------------------------------|
E----------------------------------------------------------|


D-----------------------------------------5-----5-----5----|
B-------------------------------------/5-----5-----5-------|
G----------------------------------------------------------|
D----------5-------6-------7-------------------------------|
A-----/5-------6-------7-----------------------------------|
E----------------------------------------------------------|

D--------5-----5---/7\5------------------------------------|
B-----5-----5-------------5\-------------------------------|
G----------------------------------------------------------|
D----------------------------------------------------------|
A----------------------------------------------------------|
E----------------------------------------------------------|


D----------------------------------------------------------|
B------------------------------------------7----8-----9----|
G--------------------------------------/7-----8----9-------|
D--------7-----8------9-------9\7~-------------------------|
A----/7-----8-----9----------------------------------------|
E----------------------------------------------------------|


D-----------------------------------7-----8-----9----------|
B------5----7/8\7----5~---------/7-----8-----9-------------|
G----------------------------------------------------------|
D----------------------------------------------------------|
A----------------------------------------------------------|
E----------------------------------------------------------|

D---------/13\12-------------------------------------------|
B-----9------------12/11\12~-------------------------------|
G----------------------------------------------------------|
D----------------------------------------------------------|
A----------------------------------------------------------|
E----------------------------------------------------------|



Verse 4 :


D----------------------------------------------------------|
B-------------------7/9------------------------------------|
G--------7-----7/9-------9~--------------------------------|
D----/7-----7----------------------------------------------|
A----------------------------------------------------------|
E----------------------------------------------------------|


D----------------------------------------------------------|
B-----------7----------------------------------------------|
G-------/7------6/7\6---4~---------------------------------|
D----------------------------------------------------------|
A----------------------------------------------------------|
E----------------------------------------------------------|


D----------9---9---9---9---9---9---9---9---9---9---9---9---|
B-------/9---9---9---9---9---9---9---9---9---9---9---9-----|
G----------------------------------------------------------|
D----------------------------------------------------------|
A----------------------------------------------------------|
E----------------------------------------------------------|


D-----------12-------12-------13--------14----14----14-----|
B------/12-------12------/13-------/14-----14----14--------|
G----------------------------------------------------------|
D----------------------------------------------------------|
A----------------------------------------------------------|
E----------------------------------------------------------|

D---------14------14--------------/22----------------------|
B-----14------14------14----------------22\----------------|
G----------------------------------------------------------|
D----------------------------------------------------------|
A----------------------------------------------------------|
E----------------------------------------------------------|

D----------------------------------------------------------|
B----------------------------------------------------------|
G-------17---/17----14~-----------12/14\12~----------------|
D----------------------------------------------------------|
A----------------------------------------------------------|
E----------------------------------------------------------|


Ending


D-----------12---------------11--------------10------------|
B------/12-------12-----/11------11-----/10------10--------|
G----------------------------------------------------------|
D----------------------------------------------------------|
A----------------------------------------------------------|
E----------------------------------------------------------|

D----------------------------------------------------------|
B------///////9~~~----------------\\\\\\\\\\\\\\-----------|
G---------------------------------\\\\\\\\\\\\\\-----------|
D---------------------------------\\\\\\\\\\\\\\-----------|
A----------------------------------------------------------|
E----------------------------------------------------------|

That's it.





Comments


Popular Lynyrd Skynyrd tabs & chords
All I Can Do Is Write About It Bass Tabs
I Need You Chords
Jacksonville Kid Chords
Sweet Home Alabama 1 Chords
Was I Right Or Wrong 1 Chords
Sweet Home Alabama 1 Drum Tabs
Every Mothers Son Intro Tabs
Hes Alive Tabs
The Needle And The Spoon 1 Tabs
Roll Gypsy Roll Ukulele


Song lyrics



↑ Back to top | Tablatures and chords are parodies/interpretations of the original songs. You may use it for private study, scholarship, research or language learning purposes only
© 2014 AZChords.com Contact us | Privacy policy | DMCA | Add/correct tabs | Request tabs | Top 50 tabs