>
 >
Home Sweet Alabama

Home Sweet Alabama Guitar Tabs

Lynyrd Skynyrd - Home Sweet Alabama chords, tabs, tablatures, lyrics

Guitar lessons | Add/correct | Request | Top 50 tabs Artists:  A B C D E F G H I J K L M N O P Q R S T U V W X Y Z 0-9

Home Sweet Alabama Guitar Tabs – Lynyrd Skynyrd

CD, Sheet music, Poster

Do you like Home Sweet Alabama? Share with your friends now
Tabs
Tuning:	E, A, D, G, B, E

Intro:
E:-----------------------------------------------
B:-----3-----------3-----------3-----------------
G:-------2-----------0---------0-----------------
D:-0-0-------------------------0-----0h2-0-------
A:---------0h3p0h3-------------2-0h2-------2-0h2-
E:---------------------0h3p0h3-3-----------------

E:-----------------------------------------------
B:-----3-----------3-----------3-0-2p0-0-4p0-0-5-
G:-------2-----------0---------0-----------------
D:-0-0-------------------------0-----------------
A:---------0h3p0h3-------------2-----------------
E:---------------------0h3p0h3-3-----------------

E:-----------------------------------------------
B:-----3-----------3-----------3-----------------
G:-------2-----------0---------0-------------2p0-
D:-0-0-------------------------0-----0h2-0-------
A:---------0h3p0h3-------------2-0h2-------2-----
E:---------------------0h3p0h3-3-----------------

E:-----------------------------------------------
B:-----3-----------3-----------3-----------------
G:-------2-----------0---------0-------0---------
D:-0-0-------------------------0-----------------
A:---------0h3p0h3-------------2-0-1-2-----------
E:---------------------0h3p0h3-3-----------------

Verse:
E:-----2-2---------------------------------------
B:-----3-3-------3-3-------3---------------------
G:-----2-2-2-----0-0-------0-------0-------------
D:-0-0-0---0-2-2-2-2-0-----0---------2-0h2--0-0--
A:-0-0-------3-3-3---0-2-2-2-0h1h2----------0-0--
E:---------------------3-3-3---------------------

E:-2-2-----------------------------2-2-----------
B:-3-3-------3-3-------3-----3-----3-3-------3-3-
G:-2-2-2-----0-0-------0-----0-----2-2-2-----0-0-
D:-0---0-2-2-2-2-0-----0-----0-0-0-0---0-2-2-2-2-
A:-------3-3-3---0-2-2-2-2-2-2-0-0-------3-3-3---
E:-----------------3-3-3-3-3-3-------------------

E:---------------------------2-2-----------------
B:-------3-------------------3-3-------3-3-------
G:-------0-------0-----------2-2-2-----0-0-------
D:-0-----0---------2-0h2-0-0-0---0-2-2-2-2-0-----
A:-0-2-2-2-0h1h2---------0-0-------3-3-3---0-2-2-
E:---3-3-3-----------------------------------3-3-

E:-----------------------------------------------
B:-----3-----3-----------------------------------
G:-----0-----0-----------------------------------
D:-----0-----0-----------------------------------
A:-2-2-2-2-2-2-----------------------------------
E:-3-3-3-3-3-3-----------------------------------

Bridge:
E:-----------------------------------------------
B:-----------------------------------------------
G:-------7-7---------5-5-----------0-0---------0-
D:-----------------------------------------------
A:-7-8-9-----9\5-5/7-----7\5-0-1-2-----2~---0h2--
E:---------------------------------------3~------

Chorus:
E:-----2-2-----------------------------------2-2-
B:-----3-3-------3-3-------------------------3-3-
G:-2-2-2-2-2-0-0-0-0-------------------5-2-2-2-2-
D:-0-0-0-0-0-2-2-2-2-0-----2-----0h2-0-5-0-0-0-0-
A:-0-0-------3-3-3-3-0-2-2---0h2-------3-0-0-----
E:---------------------3-3-----------------------

E:---------------------------------------------2-
B:-------3-3-----------------------------------3-
G:-2-0-0-0-0-----0-----0-----0-----0-----0-2-2-2-
D:-0-2-2-2-2-0h2---0h2---0h2---0h2---0h2---0-0-0-
A:---3-3-3-3-------------------------------0-0---
E:-----------------------------------------------

E:-2-----------------------------------2-2-------
B:-3-------3-3-------------------------3-3-------
G:-2-2-0-0-0-0-------------------5-2-2-2-2-2-0-0-
D:-0-0-2-2-2-2-0-----2-----0h2-0-5-0-0-0-0-0-2-2-
A:-----3-3-3-3-0-2-2---0h2-------3-0-0-------3-3-
E:---------------3-3-----------------------------

E:-----------------------------------------------
B:-3-3-------3-----------------------------------
G:-0-0-------0-----------------------------------
D:-2-2-0-----0-----------------------------------
A:-3-3-0-2-2-2-----------------------------------
E:-------3-3-3-----------------------------------





Comments


Popular Lynyrd Skynyrd tabs & chords
Every Mother's Son Bass Tabs
Gimme Three Steps 3 Bass Tabs
Comin Home Chords
That Aint My America Chords
Sweet Home Alabama Drum Tabs
One More Time Tabs
Simple Man 5 Tabs
Was I Right Or Was I Wrong Tabs
You Got That Right 1 Tabs
Pure And Simple Ukulele


Song lyrics



↑ Back to top | Tablatures and chords are parodies/interpretations of the original songs. You may use it for private study, scholarship, research or language learning purposes only
© 2014 AZChords.com Contact us | Privacy policy | DMCA | Add/correct tabs | Request tabs | Top 50 tabs