» » »

Gimme Three Steps Toward That Door Tabs (ver.1)

Artists:  A B C D E F G H I J K L M N O P Q R S T U V W X Y Z # 

Gimme Three Steps Toward That Door Tabs (ver.1)

Lynyrd Skynyrd
Rating:
0/5 (0 votes)

Hard to play? Try these video lessons and learn fast.
                -------------------------------------|-----------------------------|
-------------------------------------|-----------------------------|
------7---7---7--------7-------7-----|----2---2---2------2----2----|
------7---7---7--------7-------7-----|----2---2---2------2----2----|
-----------------7--9-----7--9----7-9|--------------2-4---2-4---2-4|
-------------------------------------|-----------------------------|



-------------------------------------|-----------------------------|
-------------------------------------|-----------------------------|
-------------------------------------|---7---7---7------7----7-----|
-----------------------2-------------|---7---7---7------7----7-----|
-------------2----4--------4----0----|--------------7-9---7-9---7-9|
---0---3--4--------------------------|-----------------------------|



-------------------------------------|-----------------------------|
-------------------------------------|-----------------------------|
----2--2--2------2------2------------|-----------------------------|
----2--2--2------2------2------------|---5---5---5---4--3---2------|
-------------2-4----2-4-----2---4----|-----------------------------|
-------------------------------------|-----------------------------|



-------------------------------------|-----------------------------|
-------------------------------------|-----------------------------|
--------7---7---7------7------7------|----2-------2--------2-------|
--------7---7---7------7------7------|----2-------2--------2-------|
-------------------7-9----7-9----7-9-|------------------------2--4-|
-------------------------------------|-----------------------------|



Then You Bar a d chord and hit the 4th string open then hit the d again
if you have heard the song before then you could play it by ear

            I am only 13 and I can do it its easy 
p.s. every other way anybody has it tab is wrong
            
Hard to play? Try these video lessons and learn fast. | Correct




comments powered by Disqus
↑ Back to top | Tablatures and chords are parodies/interpretations of the original songs. You may use it for private study, scholarship, research or language learning purposes only