>
 >
Gimme 3 Steps

Gimme 3 Steps Guitar Tabs

Lynyrd Skynyrd - Gimme 3 Steps chords, tabs, tablatures, lyrics

Guitar lessons | Add/correct | Request | Top 50 tabs Artists:  A B C D E F G H I J K L M N O P Q R S T U V W X Y Z 0-9

Gimme 3 Steps Guitar Tabs – Lynyrd Skynyrd

CD, Sheet music, Poster

Do you like Gimme 3 Steps? Share with your friends now
Tabs
Band- Lynyrd Skynyrd
Song- "Gimmie 3 Steps"
Album-"Pronounced Leh-Nerd Skin-Nerd"



Intro
  (Guitar 1)
|------------------------------|-----------------------------|
|------------------------------|-----------------------------|
|--7-7---7-7---7-------7-------|-2-2---2-2---2-------2-------|
|--7-7---7-7---7-------7-------|-2-2---2-2---2-------2-------|
|------9-----9-----7-9---7-9-0-|-----4-----4-----2-4---2-4-0-|
|------------------------------|-----------------------------|


  (Guitar 1)
|---------------------------|---------------------------------|
|---------------------------|---------------------------------|
|-7-7---7-7---7-----7-------|-2-2---2-2-----7---7-7---7-------|
|-7-7---7-7---7-----7-------|-2-2---2-2-----7---7-7---7-------|
|-----9-----9---7-9---7-9-0-|-0-0---0-0-7/9---9-----9---------|
|---------------------------|---------------------------------|


  (Guitar 1)
|-------------------------------------------------------|
|-------------------------------------------------------|
|--7--7-----7--7-----7---7---7---7---7----7---7---7-----|
|--7--9-----7--9-----7---7---9---7---10---7---9---7-----|
|--0--0-----0--0-----0---0---0---0---0----0---0---0-----|
|-------------------------------------------------------|
|
|(Guitar 2)
|-------------------------------------------------------|
|-10-------10---10---10----7--7-10-7--10------7---7-9-7-|
|--9b(11)-(11) (11) (11)r9-7--7--9-7---9b11r9-7---7-9-7-|
|-----------------------------------------------9-------|
|-------------------------------------------------------|
|-------------------------------------------------------|
      (hold the bend)

  (Guitar 1)
|-----------------------------|
|-----------------------------|
|-2-2---2-2---2-2-2-2-2-2-2-2-|
|-2-4---2-4---2-2-4-2-5-2-4-2-|
|-0-0---0-0---0-0-0-0-0-0-0-0-|
|-----------------------------|
|
| (Guitar 2)
|-----------------------------|
|---5----5------------------7-|
|---4b6--4b6r4----------7-9---|
|-----------------------------|
|---------------3b--0---------|
|-----------------------------|


 (Guitar 1)
|-------------------------------------------------------|
|-------------------------------------------------------|
|--7--7-----7--7-----7---7---7---7---7----7---7---7-----|
|--7--9-----7--9-----7---7---9---7---10---7---9---7-----|
|--0--0-----0--0-----0---0---0---0---0----0---0---0-----|
|-------------------------------------------------------|
|
| (Guitar 2)
|---------------------------------------------------------|
|-10----------10----------10-------10---10----10------7---|
|--9b11r9-7----9b11r9-7----9b(11)-(11)-(11)r9--9b11r9-7---|
|-----------9-----------9-------------------------------9-|
|---------------------------------------------------------|
|---------------------------------------------------------|


  (Guitar 1)
|--------------------------|
|----------------------14--|
|-----------------2----14--|
|-----------2-----2----14--|
|-------2-4---3b--0--------|
|-0-3-4--------------------|
|
| (Guitar 2)
|--------------------------|
|----------------------14--|
|-----------------2----14--|
|-----------2-----2----14--|
|-------2-4---3b--0--------|
|-0-3-4--------------------|


 (Guitar 1)
|---------------------------------------------------|
|---------------------------------------------------|
|--7--7---7--7---7---7---7---7---7----7---7---7-----|
|--7--9---7--9---7---7---9---7---10---7---9---7-----|
|--0--0---0--0---0---0---0---0---0----0---0---0-----|
|---------------------------------------------------|
|
| (Guitar 2)
|----------------------11---------11----------------|
|-10-------7---7--10--------10----------------------|
|--9b11r9--7---7---9b11------9b11-------------------|
|------------9--------------------------------------|
|---------------------------------------------------|
|---------------------------------------------------|


  (Guitar 1)
|--------------------0-|
|--------------------0-|
|------4---------1-----|
|------5---------2-----|
|------5---------2-----|
|-/3---3---3-2-1-0-----|
|
| (Guitar 2)
|----------------------|
|----------------------|
|----------------------|
|-/5---5---5-4-3-2-----|
|----------------------|
|----------------------|



 (Guitar 1)
|---------------------------------------------------|
|---------------------------------------------------|
|--7--7---7--7---7---7---7---7---7----7---7---7-----|
|--7--9---7--9---7---7---9---7---10---7---9---7-----|
|--0--0---0--0---0---0---0---0---0----0---0---0-----|
|---------------------------------------------------|
|
| (Guitar 2)
|---------------------------------------------------|
|-10-----------7--7--10--7-10----7---7-10--7--------|
|--9b11r9b11r9-7--7---9--7--9b11-7---7--9--7--------|
|----------------------------------9----------------|
|---------------------------------------------------|
|---------------------------------------------------|

  (Guitar 1 &  2)
|----------------------------------|
|---------------7-------------7----|
|-2-2---2-------7---7-7---7---7----|
|-2-2---2-------7---7-7---7---7----|
|-0-0---0-3h4-----9-----9---9------|
|----------------------------------|

  Verse
  (Guitar 1)

  plays rhythm in bars 5-12, with flourishes on the E breaks, for instance:

|------------------------------------|
|------------------------------------|
|-----------------2---------2--------|
|-----------2-----2------------------|
|-------2-4---3b--0--0--2/4----4p3p0-|
|-0-3-4------------------------------|


Lead break #1  (well excuse me...)

  D
|------------------------------------------|
|-10-----------7-7---10-------7---7--10--7-|
|--9b11r9b11r9-7-7----9b11r9--7---7---9--7-|
|------------------9------------9----------|
|------------------------------------------|
|------------------------------------------|

  A
|----------------------------------------------|
|-5---5---5-----2--2---2--5------2----2--5--2--|
|-4b6-4b6-4b6r4-2--2---2--4b6r4--2----2--4--2--|
|--------------------4--------------4----------|
|----------------------------------------------|
|----------------------------------------------|

  D
|-------------------------------------------------------------|
|-10-------10---10---10---10---10---10---10---10----7--7-10-7-|
|--9b(11)-(11)-(11)-(11)-(11)-(11)-(11)-(11)-(11)r9-7--7--9-7-|
|-----------------------------------------------------9-------|
|-------------------------------------------------------------|
|-------------------------------------------------------------|

  A
|----------------------------------|
|---------------7-------------7----|
|-2-2---2-------7---7-7---7---7----|
|-2-2---2-------7---7-7---7---7----|
|-0-0---0-3h4-----9-----9---9------|
|----------------------------------|

Lead break #2 (for sure...)

  D
|------------------------------------------|
|-------10\9\7-10\9\7-10\9\7-10\9\7-10\9\7-|
|-------10\9\7-10\9\7-10\9\7-10\9\7-10\9\7-|
|---7-9-10\9\7-10\9\7-10\9\7-10\9\7-10\9\7-|
|-9----------------------------------------|
|------------------------------------------|

  A
|----------------------------------------|
|-5---5---5-----2---5-----2---2--5--2----|
|-4b6-4b6-4b6r4-2---4b6r4-2---2--4--2----|
|-----------------4---------4----------4-|
|----------------------------------------|
|----------------------------------------|

  D                                    A
|------------------------------------|--------------------------|
|-10\9\7-10\9\7-10\9\7-10\9\7-10\9\7-|----------------------14--|
|-10\9\7-10\9\7-10\9\7-10\9\7-10\9\7-|-----------------2----14--|
|-10\9\7-10\9\7-10\9\7-10\9\7-10\9\7-|-----------2-----2----14--|
|------------------------------------|-------2-4---3b--0--------|
|------------------------------------|-0-3-4--------------------|


  D                                    E
|------------------------------------|-----------------------|
|-10\9\7-10\9\7-10\9\7-10\9\7-10\9\7-|-------------------7---|
|-10\9\7-10\9\7-10\9\7-10\9\7-10\9\7-|-----------------7---9-|
|-10\9\7-10\9\7-10\9\7-10\9\7-10\9\7-|-/5---5---5-5-/9-------|
|------------------------------------|-----------------------|
|------------------------------------|-----------------------|


  D
|------------------------------------|
|-10\9\7-10\9\7-10\9\7-10\9\7-10\9\7-|
|-10\9\7-10\9\7-10\9\7-10\9\7-10\9\7-|
|-10\9\7-10\9\7-10\9\7-10\9\7-10\9\7-|
|------------------------------------|
|------------------------------------|

  A                D
|---------------------------------|
|-5\4\2--5\4--10\9\7---7--7-----7-|
|-5\4\2--5\4--10\9\7---7--7-----7-|
|-5\4\2--5\4--10\9\7---7--7-----7-|
|--------------------9-------9----|
|---------------------------------|

outtro lead
  D
|-------------------------------------------------------------
|-10-------10---10----10-------10---10----10-------10---10----
|--9b(11)-(11)-(11)r9--9b(11)-(11)-(11)r9--9b(11)-(11)-(11)r9-
|-------------------------------------------------------------
|-------------------------------------------------------------
|-------------------------------------------------------------

               A
------------|---------------------------------------------------|
-7---7-10-7-|---------------------------------------------------|
-7---7--9-7-|-----2------2--4b6-4b6-4b6r4p2---2-4b6r4p2---2-4-2-|
---9--------|-------------------------------4-----------4-------|
------------|-2h3----2h3----------------------------------------|
------------|---------------------------------------------------|

  D
|-------------------------------------------------------------
|-10-------10---10----10-------10---10----10-------10---10----
|--9b(11)-(11)-(11)r9--9b(11)-(11)-(11)r9--9b(11)-(11)-(11)r9-
|-------------------------------------------------------------
|-------------------------------------------------------------
|-------------------------------------------------------------

               A
------------|--------------------------|
-7---7-10-7-|----------------------14--|
-7---7--9-7-|-----------------2----14--|
---9--------|-----------2-----2----14--|
------------|-------2-4---3b--0--------|
------------|-0-3-4--------------------|

  D
|-------------------------------------------------------------
|-10-------10---10----10-------10---10----10-------10---10----
|--9b(11)-(11)-(11)r9--9b(11)-(11)-(11)r9--9b(11)-(11)-(11)r9-
|-------------------------------------------------------------
|-------------------------------------------------------------
|-------------------------------------------------------------

               A
------------|----------------------|
-7---7-10-7-|----------------------|
-7---7--9-7-|----------------------|
---9--------|-/5---5---5-4-3-2-----|
------------|----------------------|
------------|----------------------|

  D
|-------------------------------------------------------------
|-10-------10---10----10-------10---10----10-------10---10----
|--9b(11)-(11)-(11)r9--9b(11)-(11)-(11)r9--9b(11)-(11)-(11)r9-
|-------------------------------------------------------------
|-------------------------------------------------------------
|-------------------------------------------------------------


------------|----------------------------------|
-7---7-10-7-|---------------7-------------7----|
-7---7--9-7-|-2-2---2-------7---7-7---7---7----|
---9--------|-2-2---2-------7---7-7---7---7----|
------------|-0-0---0-3h4-----9-----9---9------|
------------|----------------------------------|





Comments


Popular Lynyrd Skynyrd tabs & chords
Wino Bass Tabs
Honky Tonk Night Time Man Chords
The Balled Of Curtis Loew Chords
Was I Right Or Wrong Chords
Cottonmouth Country 1 Tabs
Curtis Lowe Tabs
Down South Jukin' Tabs
Simple Man (Solo) Tabs
The Needle And The Spoon 4 Tabs
What's Your Name? Tabs


Song lyrics



↑ Back to top | Tablatures and chords are parodies/interpretations of the original songs. You may use it for private study, scholarship, research or language learning purposes only
© 2014 AZChords.com Contact us | Privacy policy | DMCA | Add/correct tabs | Request tabs | Top 50 tabs