» » »

Free Bird Tabs (ver.5)

Artists:  A B C D E F G H I J K L M N O P Q R S T U V W X Y Z # 

Free Bird Tabs (ver.5)

Lynyrd Skynyrd
Rating:
0/5 (0 votes)

Hard to play? Try these video lessons and learn fast.
                (Acoustic)
(Part)
Lynyrd Skynyrd's Free Bird

   Here it is folks.  This is the tab for the acoustic guitar you hear in the background through out just about the whole song.  Its about as close as it gets.  It is my first tab so please be gentle.

|---------------------------------------------------------------------|
|---------------------------------------------------------------------|
|---------------------------------------------------------------------|
|--------0----------0----------0----------0----------2----------2-----|
|-------------2--------2------------0--------0------------2--------2--|
|---3------------3--------2------------2--------0------------0--------|



|---------------------------------------------------------------------|
|---------------------------------------------------------------------|
|----------------------------2----0--------------0-----------0--0h2---|
|---2--------2-------------------------3--------------3p2------------0|
|------2--------2---------------------------3-------------------------|
|0--------0--------0----1---------------------------------------------|



|---------------------------------------|
|--0----------0----------0----------0---|
|-----0h2--------0h2--------0h2---------|
|----------0----------0----------0------|
|---------------------------------------|
|---------------------------------------|
            
Hard to play? Try these video lessons and learn fast. | Correct




comments powered by Disqus
↑ Back to top | Tablatures and chords are parodies/interpretations of the original songs. You may use it for private study, scholarship, research or language learning purposes only