>
 >
Free Bird 9

Free Bird 9 Guitar Tabs

Lynyrd Skynyrd - Free Bird 9 chords, tabs, tablatures, lyrics

Guitar lessons | Add/correct | Request | Top 50 tabs Artists:  A B C D E F G H I J K L M N O P Q R S T U V W X Y Z 0-9

Free Bird 9 Guitar Tabs – Lynyrd Skynyrd

CD, Sheet music, Poster

Do you like Free Bird 9? Share with your friends now
Bass TabsBass Tabs v2Bass Tabs v3ChordsChords v2Chords v3Chords v4Chords v5TabsTabs v2Tabs v10Tabs v3Tabs v4Tabs v5Tabs v6Tabs v7Tabs v8Tabs v9Ukulele


This is one hell of a long solo,if you think it's going to be too much
to learn then I suggest you pick up a few licks from the tab and play them
in any order you like. Most people wouldn't even notice.
If you really want to play it like the record, then it's all here for you.
Also, I didn't try too hard on the timing of it, but it is simple to get right.

-15--------15----------------------------|---------------18-----18------------|
----15-18b----18b-18b-18-15-18-18b-15-18b|-18-15-18b-18b----18b----18b-18b----|
-----------------------------------------|------------------------------------|
-----------------------------------------|------------------------------------|
-----------------------------------------|------------------------------------|
-----------------------------------------|------------------------------------|


-15--------15----------------------------|---------------18-----18------------|
----15-18b----18b-18b-18-15-18-18b-15-18b|-18-15-18b-18b----18b----18b-18b----|
-----------------------------------------|------------------------------------|
-----------------------------------------|------------------------------------|
-----------------------------------------|------------------------------------|
-----------------------------------------|------------------------------------|


-----18-----18----|-------|----------------|--------------|-------------------|
-18b----18b-------|-18-15-|-18-18b-18b-p15-|-18b-18b-18p15|-----15-18p15------|
------------------|-------|----------------|--------------|-17b---------------|
------------------|-------|----------------|--------------|-------------------|
------------------|-------|----------------|--------------|-------------------|
------------------|-------|----------------|--------------|-------------------|
        x18                       x18                             x12

-------------------------------|----------------------------------------------|
-----15------------------------|----------------------------------------------|
-17b----15----------15---------|-15----15-17p15-17p15----15-17p15-17p15-------|
-----------17p15h17----17p15h17|----17----------------17----------------------|
-------------------------------|----------------------------------------------|
-------------------------------|----------------------------------------------|


---------------------------------------------|-----------------|--------------|
-----------18-----18-----18-----15-----18----|-15-----18-----18|---------18---|
----15-17b----17b----17b----17b----17b----17b|----17b----17b---|-17b-17b------|
-17------------------------------------------|-----------------|--------------|
---------------------------------------------|-----------------|--------------|
---------------------------------------------|-----------------|--------------|
                                                                      x17

------------------------------------|-------------|---------------------------|
-----18-----18-----18---------------|-------------|---------------------------|
-17b----17b----17b----17b-17b-p15---|--15---------|---------------------------|
----------------------------------17|-----17p15---|---------------------------|
------------------------------------|-----------17|---------------------------|
------------------------------------|-------------|---------------------------|
                                          x4

------------------------------------------------------------------------------|
------------------------------------------------------------------------------|
-------------------------------------15---------------------------------------|
-15-17-15----15-17-15----15-17-15----15-17------------------------------------|
----------17----------17----------17------------------------------------------|
------------------------------------------------------------------------------|


------------------------------------------------------------------------------|
------------------------------------------------------------------------------|
------------------------------------------------------------------------------|
-15----15-17p15----15-17p15----15-17-15---------------------------------------|
----17----------17----------17----------15------------------------------------|
------------------------------------------------------------------------------|


------------------------------------------------------------------------------|
------------------------------------------------------------------------------|
------------------------------------------------------------------------------|
-15-17-17p15----17-15----15-17p15----15---------------------------------------|
-------------17-------17----------17------------------------------------------|
------------------------------------------------------------------------------|


------------------------------------------|----------------|------------------|
------------------------------------------|----------------|------------------|
----------------15----15----15----15----15|-17b-17-15------|------------------|
-17p15----15-17-15-------17-15-------17-15|-----------17-15|------------------|
-------17----------17----------17---------|----------------|------------------|
------------------------------------------|----------------|------------------|
                                                 x8

----------------------------|-------------3------3----------------------------|
----------------------------|-6b-6b-6b------3-6b---6b-6b-6-3-6b-6b-p3-6b-6----|
-17b------------------17----|----------/4-------------------------------------|
-------------------------/17|-------------------------------------------------|
----------------------------|-------------------------------------------------|
----------------------------|-------------------------------------------------|
    --release slowly--

---------6----6----6b-6b-------------6----------------------------------------|
-3-6b-6b---6b---6b-6b-6b-6-8-8-6-8-8-6-8-8------------------------------------|
------------------------------------------------------------------------------|
------------------------------------------------------------------------------|
------------------------------------------------------------------------------|
------------------------------------------------------------------------------|


-------6-----------6----------------------------------------------------------|
-6-8-8-6-8-8-6-8-8-6-8-10b-10b-10b-6-8-8-6------------------------------------|
------------------------------------------------------------------------------|
------------------------------------------------------------------------------|
------------------------------------------------------------------------------|
------------------------------------------------------------------------------|


-----6-----------6-----------6------------------------------------------------|
-8-8-6-8-8-6-8-8-6-8-8-6-8-8-6-8-10b-10b--------------------------------------|
------------------------------------------------------------------------------|
------------------------------------------------------------------------------|
------------------------------------------------------------------------------|
------------------------------------------------------------------------------|


------------------------------------------------------------------------------|
-10b--------------------------------------------------------------------------|
---------12----12-12-14p12----12----12-12-------------------------------------|
-----/13----14-------------14----14-------------------------------------------|
------------------------------------------------------------------------------|
------------------------------------------------------------------------------|


-------------------------------------|------------------|---------------------|
-------------------------------------|------------------|---------------------|
-14p12----12----12----12-12-12-12----|-12-15p12-14p12---|12-15p12-14p12-12----|
-------14----14----14-------------/14|----------------15|---------------------|
-------------------------------------|------------------|---------------------|
-------------------------------------|------------------|---------------------|
                                             x9

---------|-15---------|-18-15---|----|---------|------------------------------|
---------|----18p15---|-------15|-15-|-18p15---|------------------------------|
-12-12/16|----------17|---------|----|-------15|------------------------------|
---------|------------|---------|----|---------|------------------------------|
---------|------------|---------|----|---------|------------------------------|
---------|------------|---------|----|---------|------------------------------|
              x16         x13             x12

-15b-15b-15b-15b-------------15b-15b------------------------------------------|
-18b-18b-18b-18b-18b-18b-18b-18b-18b------------------------------------------|
------------------------------------------------------------------------------|
------------------------------------------------------------------------------|
------------------------------------------------------------------------------|
------------------------------------------------------------------------------|


-------15-15-----15b-15b-15b-15b-------15-------------------------------------|
-18p15-15-15-15b-15b-15b-15b-15b-------15-------------------------------------|
-------------17b-17b-17b-17b-17b-17-17-17p15----------------------------------|
------------------------------------------------------------------------------|
------------------------------------------------------------------------------|
------------------------------------------------------------------------------|


-15-15-15-15-15-15------------------------------------------------------------|
-15-15-15-15-15-15------------------------------------------------------------|
-15-15-15-15-15-15-------15-15-15-15------------------------------------------|
-------------------17-17-17-17-17-17p15----15---------------------------------|
----------------------------------------17------------------------------------|
------------------------------------------------------------------------------|


-15b-15b-15b----------------------------------|------------|------------------|
-15b-15b-15b----------------------------------|------------|------------------|
-17b-17b-17b-17b-17-17-------------15---------|------------|------------------|
-----------------------17-17p15-------17p15---|-15-17p15---|------------------|
--------------------------------17----------17|----------17|------------------|
----------------------------------------------|------------|------------------|
                                                    x3

---------------------------|----------------|---------------------------------|
---------------------------|----------------|-----------------18--------------|
-------------12----14p12---|-17b-17p15------|-17b-17b-17b-17b----17b-17b------|
-15-17-14-14----14-------14|-----------17p15|---------------------------------|
---------------------------|----------------|---------------------------------|
---------------------------|----------------|---------------------------------|
                                   x3

---------------|---------------------|---|---------|--------------------------|
---------------|---------------------|---|---------|--------------------------|
-15-17----15/17|-12----12-12-15p12---|-12|-15p12---|-15b-15b------------------|
-------17------|----14-------------14|---|-------15|--------------------------|
---------------|---------------------|---|---------|--------------------------|
---------------|---------------------|---|---------|--------------------------|
                       x2                    x4

---------------------|-----------|-------|------------------------------------|
---------------------|-----------|-----15|------------------------------------|
-12----12-12-14p12---|12----12-12|-14b---|-14p12------------------------------|
----14-------------14|---14------|-------|-------14---------------------------|
---------------------|-----------|-------|------------------------------------|
---------------------|-----------|-------|------------------------------------|
        x2                           x4

------------------------------------------------------------------------------|
------------------------------------------------------------------------------|
-12----12-12-14p12-14-12----12-12-14-12-12------------------------------------|
----14-------------------14---------------------------------------------------|
------------------------------------------------------------------------------|
------------------------------------------------------------------------------|


------------------------------------------------------------------------------|
----------15b-15b-15b-15b--------15-15-15-15-15b-15b--------------------------|
-14-12-12-14b-14b-14b-14b-14b-14-12-14-12-12-14b-14b--------------------------|
------------------------------------------------------------------------------|
------------------------------------------------------------------------------|
------------------------------------------------------------------------------|


------------------------------------------------------------------------------|
-15-15-15-15-15b-15b-15-15-15-15-15b-15b-15b-15-------------------------------|
-12-14-12-12-14b-14b-12-14-12-12-14b-14b-14b-12-------------------------------|
------------------------------------------------------------------------------|
------------------------------------------------------------------------------|
------------------------------------------------------------------------------|


-------------------------------------------------|----|-----|-------|-----0---|
-15-------15----15-15-15b-15b-15b-----15-15-15-15|-15b|15---|-----19|-----0---|
-14p12----12----12-12-14b-14b-14b-p12-12-12-12-12|-14b|12---|-17b---|-17b-----|
-------14----14----------------------------------|----|---14|-------|---------|
-------------------------------------------------|----|-----|-------|---------|
-------------------------------------------------|----|-----|-------|---------|
                                                   x7          x13

-----18|---------18|-----22|-22b-|--------------------------------------------|
-18b---|-18b-18b---|-22b---|-22b-|------------------------------------15------|
-------|-----------|-------|-----|-19-19b----15----17-15-17----15-17b----15---|
-------|-----------|-------|-----|--------17----17----------17----------------|
-------|-----------|-------|-----|--------------------------------------------|
-------|-----------|-------|-----|--------------------------------------------|
  x13                 x21    x8

-------------------------------------------|-15---------|-15b-|---------------|
-------------------------------------------|----18p15---|-15b-|---------------|
-17----15b-17-15b----17----15-17-15b----15/|----------17|-17b-|---------------|
----17------------17----17-----------17----|------------|-----|---------------|
-------------------------------------------|------------|-----|---------------|
-------------------------------------------|------------|-----|---------------|
                                                 x23      x7

------------------------------------------------------------------------------|
-------------------------------------------------------15b-15b----------------|
-12----12-12-14p12----12----12-12-14p12----12----12-12---------14b-14b-12-----|
----14-------------14----14-------------14----14--------------------------14--|
------------------------------------------------------------------------------|
------------------------------------------------------------------------------|


------------------------------------------------------------------------------|
---------------------------------------------------------------------12h14----|
-12-14p12-14p12----12-------12-------12h14-14b-14-------12h14-14-14b----------|
----------------14----14-14----12h14--------------12h14-----------------------|
------------------------------------------------------------------------------|
------------------------------------------------------------------------------|


---------------------------15|-----15|---------------------|----|-------------|
-------15b-------------------|-------|----------------12-13|-15b|-15p13-------|
-12h14-14b-12-14-12-12-14b---|-14b---|-14b-14b-14b-14------|----|-------------|
-----------------------------|-------|---------------------|----|-------------|
-----------------------------|-------|---------------------|----|-------------|
-----------------------------|-------|---------------------|----|-------------|
                                 x4                          x4

------------------------------------------------------------------------------|
-13p12-12-13-12----12---------------------------------------------------------|
----------------14----14-12-12-14p12------------------------------------------|
-------------------------------------14---------------------------------------|
------------------------------------------------------------------------------|
------------------------------------------------------------------------------|





Comments


Popular Lynyrd Skynyrd tabs & chords
Made In The Shade Bass Tabs
Saturday Night Special 1 Bass Tabs
Saturday Night Special 3 Bass Tabs
Poison Whiskey Chords
Gimme Back My Bullets 1 Tabs
I Need You Intro Tabs
Whiskey Rock-a-roller Intro Tabs
Georgia Peaches Ukulele
Mississippi Kid Ukulele
Swamp Music Ukulele


Song lyrics



↑ Back to top | Tablatures and chords are parodies/interpretations of the original songs. You may use it for private study, scholarship, research or language learning purposes only
© 2014 AZChords.com Contact us | Privacy policy | DMCA | Add/correct tabs | Request tabs | Top 50 tabs