>
 >
Free Bird 8

Free Bird 8 Guitar Tabs

Lynyrd Skynyrd - Free Bird 8 chords, tabs, tablatures, lyrics

Guitar lessons | Add/correct | Request | Top 50 tabs Artists:  A B C D E F G H I J K L M N O P Q R S T U V W X Y Z 0-9

Free Bird 8 Guitar Tabs – Lynyrd Skynyrd

CD, Sheet music, Poster

Do you like Free Bird 8? Share with your friends now
Bass TabsBass Tabs v2Bass Tabs v3ChordsChords v2Chords v3Chords v4Chords v5TabsTabs v2Tabs v10Tabs v3Tabs v4Tabs v5Tabs v6Tabs v7Tabs v8Tabs v9Ukulele
Awesome song Hope you enjoy it this is pretty close to correct

Standard Tuning

Intro/verse
e--------------------------------------------------------------------------
b--------------------------------------------1----3---3---3---3------------
g------------------------------------------0---0---0h2-0h2-0h2-0h2---------
d---0--0----0--0----2--2--2--2----3--3--------2----------------------------
a----2--2----0--0----2--2--2--2----3--3--3---------------------------------
E--3--3----2--2----0--0--0--0----1--1--------------------------------------

Chorus:

And the bird you cannot change....
e--11-11--00-00--22-2-22-2-
b--11-11--11-11--33-3-33-3-
g--22-22--00-00--22-2-22-2-
d--33-33--22-22--00-0-00-0-
a--33-33--33-33------------
E--11-11-------------------
 
Listen to the recording to get strum pattern down right... I don't have the solo worked out perhaps in a future tab...this is my first tab I hope you enjoy it 

Great song by an incredible band thank you skynyrd





Comments


Popular Lynyrd Skynyrd tabs & chords
Gimme Three Steps Bass Tabs
Am A Losin Chords
Last Rebel Chords
The Ballad Of Curtis Loew Chords
Tuesday's Gone Chords
Don't Ask Me No Questions 2 Tabs
Dont Ask Me No Questions Tabs
Tuesdays Gone (Intro Ver 2) Tabs
Cry For The Bad Man Ukulele
Roll Gypsy Roll Ukulele


Song lyrics



↑ Back to top | Tablatures and chords are parodies/interpretations of the original songs. You may use it for private study, scholarship, research or language learning purposes only
© 2014 AZChords.com Contact us | Privacy policy | DMCA | Add/correct tabs | Request tabs | Top 50 tabs