» » »

Down South Jukin' Tabs (ver.1)

Artists:  A B C D E F G H I J K L M N O P Q R S T U V W X Y Z # 

Down South Jukin' Tabs (ver.1)

Lynyrd Skynyrd
Rating:
0/5 (0 votes)

Hard to play? Try these video lessons and learn fast.
                Band: Lynyrd Skynyrd

Legend:
h= hammer on
p= pull off
b= bend
hb= Half bend
r= release bend
/= slide up
\= slide down
x= mute
~= vibrato
*= pinch harmonic
PrBe= Pre-bend


Intro:
           Hold Bend             Hold Bend
         /-----------\         /-----------\
e|-------------------------------------------------------------|
B|-------5--5--5--5--5---------5--5--5--5--5-------------------|
G|-----2-4b-4b-4b-4b-4br-2-----4b-4b-4b-4b-4br-2---------------|
D|-2-4---------------------4-2-------------------4-2-----------|
A|-------------------------------------------------------------|
E|-------------------------------------------------------------|

e|-------------------------------------------------------------|
B|----5----5----5----5----5----5-------------------------------|
G|-4b---4b---4b---4b---4b---4b---4-2---------------------------|
D|-----------------------------------4-2-----------------------|
A|-------------------------------------------------------------|
E|-------------------------------------------------------------|

e|-------------------------------------------------------------|
B|-------------------------------------------------------------|
G|---------2--------7-8-9----------------2-------------2-2-----|
D|-2---4------4-2---7-8-9--------2---4------4-2----4-------4---|
A|-0-0---0------0---5-6-7--------0-0---0------0--0---0---------|
E|-------------------------0-3-4-------------------------------|

e|-------------------------------------------------------------|
B|-------------------------------------------------------------|
G|---------2---------4b-4-2------------------------------------|
D|-2---4------4-2------------4---------------------------------|
A|-0-0---0------0--0-------------------------------------------|
E|-------------------------------------------------------------|


Verse 1: 

e|-------------------------------------------------------------|
B|-------------------------------------------------------------|
G|---------2------------2-2------------2------------2-2--------|
D|-2---4-----4--2---4-------4--2---4-----4--2---4-------4------|
A|-0-0---0------0-0---0--------0-0---0------0-0---0------------|
E|-------------------------------------------------------------|

e|-------------------------------------------------------------|
B|-------------------------------------------------------------|
G|---------2------------2-2------------------------------------|
D|-2---4-----4--2---4-------4----------2------------2----------|
A|-0-0---0------0-0---0--------2---4-----4--2---4-----3-4------|
E|-----------------------------0-0---0------0-0---0------------|

e|-------------------------------------------------------------|
B|------------------------------------3------------------------|
G|---------2------------2-2----2---4-----4-2-------2-----------|
D|-2---4-----4--2---4-------4--0-0---0-------4-3-4-------------|
A|-0-0---0------0-0---0-------------------------------0-3-4----|
E|-------------------------------------------------------------|

e|-------------------------------------------------------------|
B|-------------------------------------------------------------|
G|---------2---------------------------2--------7-8-9----------|
D|-2---4-----4----------2-2----2---4-----4--2---7-8-9----------|
A|-0-0---0------2---4-------4--0-0---0------0---5-6-7----------|
E|--------------0-0---0--------------------------------0-3-4---|


Verse 2: 

e|-------------------------------------------------------------|
B|-------------------------------------------------------------|
G|---------2------------2-2------------2------------2-2--------|
D|-2---4-----4--2---4-------4--2---4-----4--2---4-------4------|
A|-0-0---0------0-0---0--------0-0---0------0-0---0------------|
E|-------------------------------------------------------------|

e|-------------------------------------------------------------|
B|-------------------------------------------------------------|
G|---------2------------2-2------------------------------------|
D|-2---4-----4--2---4-------4----------2------------2----------|
A|-0-0---0------0-0---0--------2---4-----4--2---4-----3-4------|
E|-----------------------------0-0---0------0-0---0------------|

e|-------------------------------------------------------------|
B|------------------------------------3------------------------|
G|---------2------------2-2----2---4-----4-2-------2-----------|
D|-2---4-----4--2---4-------4--0-0---0-------4-3-4-------------|
A|-0-0---0------0-0---0-------------------------------0-3-4----|
E|-------------------------------------------------------------|

e|-------------------------------------------------------------|
B|-------------------------------------------------------------|
G|---------2---------------------------2--------7-8-9----------|
D|-2---4-----4----------2-2----2---4-----4--2---7-8-9----------|
A|-0-0---0------2---4-------4--0-0---0------0---5-6-7----------|
E|--------------0-0---0--------------------------------0-3-4---|


Guitar Solo: 

e|-------------------------------------------------------------|
B|-5---2-2---2-2---2-5----5---2--2-2---------------------------|
G|-4br-2-2---2-2---2-4b---4br-2--2-2---------2-----2-----------|
D|---------4-----4-------------------4-2-----------------------|
A|---------------------------------------3hb---3hb-------------|
E|-------------------------------------------------------------|

e|-------------------------------------------------------------|
B|---------5---2---5---2-------2-----2--------5--5--5----------|
G|-----2-4-4br-2---4br-2-------2-----2------2-4b-4b-4br-2------|
D|---------------4-------4--------------------------------4----|
A|-3hb---------------------3hb---3hb----3hb--------------------|
E|-------------------------------------------------------------|

e|-------------------------------------------------------------|
B|-2-2---2-2---2-(2)-------------------------5---2---2---------|
G|-2-2---2-2---2-(2)---------------------2-4-4br-2---2---------|
D|-----4-----4-----------2-----2-----2-4-----------4-----------|
A|-------------------3-4---3-4---3-4---------------------------|
E|-------------------------------------------------------------|
                                    
                                       Hold Bend
                                /---------------------\
e|-------------------------------------------------------------|
B|-2---2-------5---2---2-----------10-10-10-10-10-10-10--------|
G|-2---2---2-4-4br-2---2-4-2----9b-9b-9b-9b-9b-9b-9b-9br-7---7-|
D|---4---4-----------4-------------------------------------9---|
A|-------------------------------------------------------------|
E|-------------------------------------------------------------|

e|-------------------------------------------------------------|
B|-------5--5-----------2-2------------------------------------|
G|-----2-4b-4b-4-2------2-2---------2-----2--------------------|
D|-2-4-------------4-2------4-2--------------------------------|
A|------------------------------3-4---3-4---3-4----------------|
E|-------------------------------------------------------------|

e|-------------------------------------------------------------|
B|-5--5----5--5----5--5----5--5----5---------------------------|
G|-4b-4b-2-4b-4b-2-4b-4b-2-4b-4b-2-4b--------------------------|
D|-------------------------------------------------------------|
A|-------------------------------------3-4---3-4---3-4---3-4---|
E|-----------------------------------------5-----5-----5-----5-|

e|-------------------------------------------------------------|
B|-------------------------------------------------------------|
G|-----------------------------12p10---------------------------|
D|-7-5-------------------10-12---------------------------------|
A|-----8--5-8--8-5-8-/12---------------------------------------|
E|-------------------------------------------------------------|

e|-------------------------------------------------------------|
B|-10----10------10--------------------------------------------|
G|-9brb--9br-7---9br-7---7-9-7------------------9-11br-9----9--|
D|-------------9-------9--------/6-9-9-6-9-9-11----------11----|
A|-------------------------------------------------------------|
E|-------------------------------------------------------------|

e|-------------------------------------------------------------|
B|-------------------------------------------------------------|
G|------9~~~-\-------------------------------------------------|
D|-11-9--------------------------------------------------------|
A|-------------------------------------------------------------|
E|-------------------------------------------------------------|

e|-------------------------------------------------------------|
B|-------------------------------------------------------------|
G|------------2------------2-2------------2--------4b-4-2------|
D|----2---4-----4--2---4-------4--2---4-----4--2----------4----|
A|----0-0---0------0-0---0--------0-0---0------0-0-------------|
E|-3b----------------------------------------------------------|


Verse 3:

e|-------------------------------------------------------------|
B|-------------------------------------------------------------|
G|---------2------------2-2------------2------------2-2--------|
D|-2---4-----4--2---4-------4--2---4-----4--2---4-------4------|
A|-0-0---0------0-0---0--------0-0---0------0-0---0------------|
E|-------------------------------------------------------------|

e|-------------------------------------------------------------|
B|-------------------------------------------------------------|
G|---------2------------2-2------------------------------------|
D|-2---4-----4--2---4-------4----------2------------2----------|
A|-0-0---0------0-0---0--------2---4-----4--2---4-----3-4------|
E|-----------------------------0-0---0------0-0---0------------|

e|-------------------------------------------------------------|
B|-------------------------------------3-----------------------|
G|---------2------------2-2----2---4-----4-2-------2-----------|
D|-2---4-----4--2---4-------4--0-0---0-------4-3-4-------------|
A|-0-0---0------0-0---0-------------------------------0-3-4----|
E|-------------------------------------------------------------|

e|-------------------------------------------------------------|
B|-------------------------------------------------------------|
G|---------2-------------------2-------------------------------|
D|-2---4-----4----------2------2-------------------------------|
A|-0-0---0------2---4-----4-3--0-------------------------------|
E|--------------0-0---0----------------------------------------|

Outro:

     PrBe
e|-------------------------------------------------------------|
B|-5---------2-2-----------------------------------------------|
G|---4br-2---2-2---------2-------------------------------------|
D|---------4-----4-2--------2----------------------------------|
A|-------------------3-4----0----------------------------------|
E|-------------------------------------------------------------|


LYRICS:

(Verse 1)
Well ol’ Billy Joe tol' me, said everything's lookin' fine 
He got the place all secured, got the icebox full of wine 
He said now hurry on over and don't be late 
He got three lovely ladies who just won't wait 
Do some down south jukin' 
And lookin' for a peace of mind 

(Verse 2)
Now put your Sunday pants on, let’s get out on the road 
We been workin' all week and I'm thinkin' it’s time we let go 
I got three fine mamas sittin’ all alone, gonna sip our wine … ahh … get it on 
And do some down south jukin' 
Lookin' for a peace of mind 

(Verse 3)
Now come Monday morn we'll be headin' back to the field 
Where we'll be doin’ our thing for Papa and ol' Uncle Bill 
Lord, but come Friday night we'll be headed to town 
Tryin' to pick up any woman hangin’ around 
And do some down south jukin' 
Lookin' for a peace of mind
            
Hard to play? Try these video lessons and learn fast. | Correct




comments powered by Disqus
↑ Back to top | Tablatures and chords are parodies/interpretations of the original songs. You may use it for private study, scholarship, research or language learning purposes only