>
 >
Don't Ask Me No Questions 2

Don't Ask Me No Questions 2 Guitar Tabs

Lynyrd Skynyrd - Don't Ask Me No Questions 2 chords, tabs, tablatures, lyrics

Guitar lessons | Add/correct | Request | Top 50 tabs Artists:  A B C D E F G H I J K L M N O P Q R S T U V W X Y Z 0-9

Don't Ask Me No Questions 2 Guitar Tabs – Lynyrd Skynyrd

CD, Sheet music, Poster

Do you like Don't Ask Me No Questions 2? Share with your friends now
Bass TabsChordsChords v2TabsTabs v2Tabs v3
               Don't ask Me No Questions                     
                    
                  Lynyrd Skynyrd


----------------------------------------------------------------------------

 Tuning:

  e|---------------------------------|
  B|---------------------------------|
  G|------------2-4-7-7\-2-4-5-5-5-3-| 2 X
  D|-2-4-5-(5)--2-4-7-7\-2-4-5-5-5-3-|
  A|-2-4-5-(5)--0-2-5-5\-0-2-3-3-3-1-|
  E|-0-2-3-(3)-----------------------|

  e|--------------------------------------|
  B|-13b--14-15-15/17---------------------|
  G|-------------------15Fb-13-10---------|
  D|------------------------------9r-8-6\-|
  A|--------------------------------------|
  E|--------------------------------------|

  e|---------------------------------------------|
  B|---------------------------------------------|
  G|---------------5-5---------------------------|
  D|-5-x-2-4-5-(5)-5-5--9--7--7--7--5-(5)-5-5--5-|
  A|-5-x-2-4-5-(5)-3-3--5--5--5--5--5-(5)-5-5--5-|
  E|-3-x-0-2-3-(3)------------------3-(3)-3-3--3-|

  e|-----------------------------------------|
  B|-----------------------------------------|
  G|-4------5-(5)-5-5------------------------|
  D|-5-5-5--5-(5)-5-5--9--7-7-7-5-(5)-5-5--5-|
  A|---5-5--3-(3)-3-3--5--5-5-5-5-(5)-5-5--5-|
  E|---3-3----------------------3-(3)-3-3--3-|

  e|------------------------------------------|
  B|------------------------------------------|
  G|------5-(5)-5-5-5-------------------------|
  D|-5-5--5-(5)-5-5-5-9--7--7--7-5-(5)-5-5--5-|
  A|-5-5--3-(3)-3-3-3-5--5--5--5-5-(5)-5-5--5-|
  E|-3-3-------------------------3-(3)-3-3--3-|

  e|---------------------------------------|
  B|---------------------------------------|
  G|------5-(5)-5-5-5----------9-(9)-9-9\5-|
  D|-5--5-5-(5)-5-5-5-9--7-7-7-9-(9)-9-9\5-|
  A|-5--5-3-(3)-3-3-3-5--5-5-5-7-(7)-7-7\3-|
  E|-3--3----------------------------------|

  e|-----------------------------------------------------------|
  B|-----------------------------------------------------------|
  G|-5-------------------------------7-7-----------5-----0-----|
  D|-5-----5---5-(5)-5---------------7-7-----------5-1/2---0---|
  A|-3-5/7---7-5-(5)-5-----5---5-(5)-5-5-0-2-3-(3)-3-----------|
  E|-----------3-(3)-3-5\7---7-------------------------------3-|

  e|----------------------------------------------------|
  B|----------------------------------------------------|
  G|----------5-(5)-5-5---------------------------------|
  D|-5--5-5-5-5-(5)-5-5--9--7--7--7-7-12-(12)-12-12-/12-|
  A|-5--5-5-5-3-(3)-3-3--5--5--5--5-5-10-(10)-10-10-/10-|
  E|-3--3-3-3-------------------------------------------|


  e|---------------------------------------------------|
  B|---------------------------------------------------|
  G|-----------5-(5)-5-5-------------------------------|
  D|-12-12--12-5-(5)-5-5--9--7-7-7-7-12-(12)-12-12--12-|
  A|-10-10--10-3-(3)-3-3--5--5-5-5-5-10-(10)-10-10--10-|
  E|---------------------------------------------------|

  e|--------------------------------------------------|
  B|--------------------------------------------------|
  G|--------------------------------------------------|
  D|-12-12--12-5-(5)-5-5--9-(9)-7--7--7--5-(5)-5-5--5-|
  A|-10-10--10-3-(3)-3-3--5-(5)-5--5--5--5-(5)-5-5--5-|
  E|-------------------------------------3-(3)-3-3--3-|

  e|--------------------------------------------------------|
  B|--------------------------------------------------------|
  G|-----------5-(5)-5-5--------------------9-(9)-9---------|
  D|-5-5--5-5--5-(5)-5-5--9-(9)-7--7--7--7--9-(9)-9-9\7-5---|
  A|-5-5--5-5--3-(3)-3-3--5-(5)-5--5--5--5--7-(7)-7---------|
  E|-3-3--3-3---------------------------------------------8-|

  e|----------------------------------------------------------------|
  B|----------------------------------------------------------------|
  G|----------------------------------------------------------------|
  D|---------------------------------------------7--(7)--7--7-------|
  A|-10Fb-(10)-10--------10------------------5---5--(5)--5--5-0-2-3-|
  E|------------8--10/12----12-10-3--3-3-5/7---7--------------------|

  e|----------------------------------------------------------|
  B|----------------------------------------------------------|
  G|------------------------------------------------7-7-------|
  D|-(5)-------5-----5-----5---5-(5)-5--------------7-7-------|
  A|-(3)-3-5/7---7---3-5/7---7-5-(5)-5----5---5-(5)-5-5-0-2-3-|
  E|---------------3-----------3-(3)-3--7---7-----------------|

  e|-----------------|
  B|-----------------|
  G|-----5----0------|
  D|-----5--2---0----|
  A|-(3)-3-----------|
  E|---------------3-|

  e|---------------------------------|
  B|---------------------------------|
  G|------------2-4-7-7\-2-4-5-5-5-3-| 2 X
  D|-2-4-5-(5)--2-4-7-7\-2-4-5-5-5-3-|
  A|-2-4-5-(5)--0-2-5-5\-0-2-3-3-3-1-|
  E|-0-2-3-(3)-----------------------|

  e|--------------------------------------------------|
  B|-(14)-14-13-14-14v--14-13-14-14Fb-12-------11-----|
  G|-------------------------------------12-10----12v-|
  D|--------------------------------------------------|
  A|--------------------------------------------------|
  E|--------------------------------------------------|

  e|---------------------------------------|
  B|---------------------------------------|
  G|-12-10------8-10v-10Fbr8---------10b^^-|
  D|-------11-9--------------10-8-10-------|
  A|---------------------------------------|
  E|---------------------------------------|

  e|-----------------------------------------------|
  B|----------------------------------7------------|
  G|-10Fbr8---------------10Fb-8-------------10b-8-|
  D|--------10-8-10-10b^^--------10-8---8----------|
  A|--------------------------------------10-------|
  E|-----------------------------------------------|

  e|-------8---------------------------------|
  B|-/10-8---10-11Fb-11Fb-11b-11b-11b-11brp9-|
  G|-----------------------------------------|
  D|-----------------------------------------|
  A|-----------------------------------------|
  E|-----------------------------------------|

  e|-------------------------------------------------|
  B|----9-11----9-11----9-11-12-11-9----11----9-11b\-|
  G|-11------11------11--------------11----11--------|
  D|-------------------------------------------------|
  A|-------------------------------------------------|
  E|-------------------------------------------------|

  e|-----------------------/19-17-------------------|
  B|-12b-10----------12-10--------17-17-15----------|
  G|--------12-10-12-----------------------17-15-16-|
  D|------------------------------------------------|
  A|------------------------------------------------|
  E|------------------------------------------------|
                      pick 5x as you bend
  e|-18----------------18-18Fb---15-|
  B|----17-15-----------------------|
  G|----------17-15-16--------------|
  D|--------------------------------|
  A|--------------------------------|
  E|--------------------------------|
  
  e|-----------------------------------------------------|
  B|-----------------------------------------------------|
  G|-5-5---7---7--7--7-7-12-(12)-12-12--12--12--12-12--5-|
  D|-5-5---7---7--7--7-7-12-(12)-12-12--12--12--12-12--5-|
  A|-3-3---5---5--5--5-5-10-(10)-10-10--10--10--10-10--3-|
  E|-----------------------------------------------------|

  e|-------------------------------------------------|
  B|-------------------------------------------------|
  G|-(5)---5--5--------------------------------------|
  D|-(5)---5--5---7--(7)-7-9-7--7-9-5--(5)--5--5---5-|
  A|-(3)---3--3---5--(5)-5-5-5--5-5-5--(5)--5--5---5-|
  E|--------------------------------3--(3)--3--3---3-|

  e|-------------------------------------------------------|
  B|-------------------------------------------------------|
  G|----6-7--5--(5)--5--5-5----------------7--(7)--7---5-5-|
  D|-5--6-7--5--(5)--5--5-5--9---7--7--7-7h9--(9)--9p7-5h7-|
  A|-5--4-5--3--(3)--3--3-3--5---5--5--5-------------------|
  E|-3-----------------------------------------------------|

  e|--------------------------------------------------------------------|
  B|--------------------------------------------------------------------|
  G|-5------------------------------------------------------------------|
  D|-5------5---------------------7--(7)--7--7-------------5------5-----|
  A|----5/7---7-5-------------5---5--(5)--5--5-0-2-3--(3)--3--5/7---7---|
  E|---------------3--3-3-5/7---7-------------------------------------3-|

  e|-----------------------------------------------------------------|
  B|-----------------------------------------------------------------|
  G|-----------------------5-6-7--(7)--7\-----------------5--5-------|
  D|-5--5-------------5----5-6-7--(7)--5\-----------------5--5-------|
  A|-5--5-------------5----3-4-5--(5)--5\-----0-2-3--(3)--3--3-------|
  E|-3--3-0-2-3--(3)--3----------------------------------------6\5-3-|

  e|------------------------------------------------|
  B|------------------------------------------------|
  G|--------------------------5-6-7--(7)--7\--------|
  D|--5---5---------------5---5-6-7--(7)--7\--------|
  A|--5---5---------------5---3-4-5--(5)--5\--0-2-3-|
  E|--3---3-0--2--3--(3)--3-------------------------|

  e|-------15-13/15-|
  B|-13/15----------|
  G|----------------|
  D|----------------|
  A|----------------|
  E|----------------|

  e|-----------------------------------------------------------------|
  B|-----------------------------------------------------------------|
  G|-----------------------5-6-7--(7)--7\-----------------5--5-------|
  D|-5--5-------------5----5-6-7--(7)--5\-----------------5--5-------|
  A|-5--5-------------5----3-4-5--(5)--5\-----0-2-3--(3)--3--3-------|
  E|-3--3-0-2-3--(3)--3----------------------------------------6\5-3-|

  e|------------------------------------------------|
  B|------------------------------------------------|
  G|--------------------------5-6-7--(7)--7\--------|
  D|--5---5---------------5---5-6-7--(7)--7\--------|
  A|--5---5---------------5---3-4-5--(5)--5\--0-2-3-|
  E|--3---3-0--2--3--(3)--3-------------------------|

  e|-----17----17-----17------------------------17-|
  B|b17----b17----b17----15Fb----------13-14-15----|
  G|--------------------------15\14-12-------------|
  D|-----------------------------------------------|
  A|-----------------------------------------------|
  E|-----------------------------------------------|


  | /  slide up
  | \  slide down
  | h  hammer-on
  | p  pull-off
  | ~  vibrato
  | +  harmonic
  | x  Mute note
===============================================================================





Comments


Popular Lynyrd Skynyrd tabs & chords
Curtis Lowe Chords
Sweet Little Missy Chords
Tuesdays Gone 1 Chords
Sweet Home Alabama Drum Tabs
Last Rebel Intro Tabs
Sweet Home Alabama 1 Tabs
The Ballad Of Curtis Loew 2 Tabs
Travellin Man Tabs
Roll Gypsy Roll Ukulele
Workin For Mca Ukulele


Song lyrics



↑ Back to top | Tablatures and chords are parodies/interpretations of the original songs. You may use it for private study, scholarship, research or language learning purposes only
© 2014 AZChords.com Contact us | Privacy policy | DMCA | Add/correct tabs | Request tabs | Top 50 tabs