» » »

Dixie Tabs (ver.2)

Artists:  A B C D E F G H I J K L M N O P Q R S T U V W X Y Z # 

Dixie Tabs (ver.2)

Lynyrd Skynyrd
Rating:
5/5 (3 votes)

Hard to play? Try these video lessons and learn fast.
                (Intro)
Standard E tuning
Key of G
This is the intro to Sweet Home Alabama from the 1990s.It is played using a slide.
~~~~~~ Vibrato
B Bend

E----------------------------------------------------------------------------|
B----3-----------------------------------------------------------------------|
G------4------4--------------------------9-9-----9-/-11-/-12-/-14-/-17-/-16~-|
D--------5--5---5-/-7-/-9-/12-12-12-/-9--------------------------------------|
A----------------------------------------------------------------------------|
E----------------------------------------------------------------------------|

E----------------------------------------------------------------------------|
B----------------------------------------------------------------------------|
G----------------------------------------------------------------------------|
D--17-/-16-/-14-/-17/16/17~~~~~~---------------------------------------------|
A--------------------------17-/-16-/-14-/-17/16/17~~~~~----------------------|
E--------------------------------------------------------17-17-B-19-15~~~~~~-|
            
Hard to play? Try these video lessons and learn fast. | Correct




comments powered by Disqus
↑ Back to top | Tablatures and chords are parodies/interpretations of the original songs. You may use it for private study, scholarship, research or language learning purposes only