» » »

Lynyrd Skynyrd, Call Me The Breeze Tabs (ver.2)

Artists:  A B C D E F G H I J K L M N O P Q R S T U V W X Y Z # 

Call Me The Breeze Tabs (ver.2)

Lynyrd Skynyrd Tabs
 Rating:
4/5 (4 votes)
Call Me The Breeze lessons Tabs too difficult? Try these video lessons and learn fast
                (Solo)
Call Me The Breeze
Lynyrd Skynyrd

Guitar Solo (c. 1:20)

Notes: 
-"< x >" indicates a series of triplets.
-b = bend to following pitch in parentheses (if pitch not inidcated, bend is full
step), p = pulloff, h = hammeron, r = return bend
-Beat: 192 BPM, with shuffle rhythm...

|-----9-----9-----9|-----9-----9--|-----8-----8-----8|-----8-----8-----8|
|------------------|--------------|------------------|------------------|
|/9-----9-----9----|-9-----9-----9|\8-----8-----8----|-8-----8-----8----|
|------------------|--------------|------------------|------------------|
|------------------|--------------|------------------|------------------|
|------------------|--------------|------------------|------------------|

|/9-9-9-9/9-9-9-9|/9-9-9-9/9-9-9-9|/9-9-9-9/9-9-9-9|/9-9-9-9/9-9-9-9|
|/8-8-8-8/8-8-8-8|/8-8-8-8/8-8-8-8|/8-8-8-8/8-8-8-8|/8-8-8-8/8-8-8-8|
|/9-9-9-9/9-9-9-9|/9-9-9-9/9-9-9-9|/9-9-9-9/9-9-9-9|/9-9-9-9/9-9-9-9|
|----------------|----------------|----------------|----------------|
|----------------|----------------|----------------|----------------|
|----------------|----------------|----------------|----------------|

|------5---------8-10|-10---8---5-7b(8)|<(8)r7p5>-----5----------|
|----5---/10---------|---------------------------|----------8p5---8p5------|
|-/6-----------------|---------------------------|--------------------7b(8)|
|--------------------|---------------------------|-------------------------|
|--------------------|---------------------------|-------------------------|
|--------------------|---------------------------|-------------------------|

|-----------------|--------------------|------------------|------------------|
|----------------5|-(5)-5-------5-(5)-5|-------5-(5)-5----|---5-(5)-5-------5|
|-r7p5h6---------5|-(5)-5-------5-(5)-5|-------5-(5)-5----|---5-(5)-5-------5|
|----------7-5-7--|-------7-5-7--------|-7-5-7---------7-5|-7---------7-5-7--|
|-----------------|--------------------|------------------|------------------|
|-----------------|--------------------|------------------|------------------|

|--------------------|--------------------|--------------------|--------------------|
|-(5)-5--------------|--------------------|--------------------|--------------------|
|-(5)-5--------------|--------------------|--------------------|--------------------|
|-------7-5---------5|---------5---------5|---------5---------5|---------5---------5|
|-----------\5-3-/7--|-\5-3-/7---\5-3-/7--|-\5-3-/7---\5-3-/7--|-\5-3-/7---\5-3-/7--|
|--------------------|--------------------|--------------------|--------------------|

|-------------------|----------------|-----------------|---------------------------|
|-------------------|----------------|-----------------|---------10------10-12b(14)|
|-------------------|----------------|-----------------|----9-11------11-----------|
|---------5---------|-----------5-7--|-7-----7-7---7-9/|/10------------------------|
|-\5-3-/7---\5-3----|-----3-5/7-----7|---7/9-----9-----|---------------------------|
|----------------5-3|-5--------------|-----------------|---------------------------|

|------------------------------|------12-----12-----12-----12|-----12-----12-----12-----12|
|<(14)r12p10>-12---10----10-12b|-(14)----12b----12b----12b---|-12b----12b----12b----12b---|
|---------------------11-------|-----------------------------|----------------------------|
|------------------------------|-----------------------------|----------------------------|
|------------------------------|-----------------------------|----------------------------|
|------------------------------|-----------------------------|----------------------------|

|-----12-----12-----12-----12|-----12-----12-----12-----12|-----12-----12-----12-----12|
|-12b----12b----12b----12b---|-12b----12b----12b----12b---|-12b----12b----12b----12b---|
|----------------------------|----------------------------|----------------------------|
|----------------------------|----------------------------|----------------------------|
|----------------------------|----------------------------|----------------------------|
|----------------------------|----------------------------|----------------------------|




|-----12-----12-----12-----12|-----12-----12-----12-----12|-----12-----12-----12-12—-12-|
|-12b----12b----12b----12b---|-12b----12b----12b----12b---|-12b----12b----12b----12b-12b|
|----------------------------|----------------------------|-----------------------------|
|----------------------------|----------------------------|-----------------------------|
|----------------------------|----------------------------|-----------------------------|
|----------------------------|----------------------------|-----------------------------|

|-(12-)---(12-)---12----12---|-(12-)------------------------|------12-12--------12-12b|
|-(12b)---(12b)---12b---12b--|-(12b)---12---10---<---10-12b>|-(14)----12b-------------|
|----------------------------|-------------------<11------->|-------------------------|
|----------------------------|------------------------------|-------------------------|
|----------------------------|------------------------------|-------------------------|
|----------------------------|------------------------------|-------------------------|

|b(14)---r12--------|------------------------|------------------------------|
|--------------12-10|-(10)--------10------12b|<(14)r12p10>-12---p10---------|
|-------------------|--------11--------11----|----------------------11-9----|
|-------------------|------------------------|---------------------------11\|
|-------------------|------------------------|------------------------------|
|-------------------|------------------------|------------------------------|

|------------------|------------------------|----------------------------------|
|-------5-(5)-5----|-----------17-17--------|-17-17---------17-17---------17-17|
|-------5-(5)-5----|-----5/////------19b(21)|-------19b(21)-------19b(21)------|
|\9-7-9---------7-5|-7----------------------|----------------------------------|
|------------------|------------------------|----------------------------------|
|------------------|------------------------|----------------------------------|

|---------------------------------------|-17------------17------------17--------|
|---------17-17---------17-17---------17|------------17------------17-----------|
|-19b(21)-------19b(21)-------19b(21)---|----19b(21)-------19b(21)-------19b(21)|
|---------------------------------------|---------------------------------------|
|---------------------------------------|---------------------------------------|
|---------------------------------------|---------------------------------------|

|----17------------17-------7b(8)|<(8)r7p5>----5----------|-----------------|
|-17------------17---------------|---------8p5---8p5------|-----------------|
|-------19b(21)-------19\--------|-------------------7b(8)|-r7p5h6----------|
|--------------------------------|------------------------|--------7-5------|
|--------------------------------|------------------------|------------7-5--|
|--------------------------------|------------------------|----------------8|

|--------------------|-----------------|
|--------------------|-----------------|
|------------------5\|-4p2-----2------2|
|------------2-4-----|-----4---2-------|
|-------/4-----------|-------------/4--|
|-(8)----------------|-----------------|
            
Submit corrections

comments powered by Disqus
↑ Back to top | Lynyrd Skynyrd Tabs for Call Me The Breeze. Lyrics for acoustic guitar and electric guitar. Tablatures and chords are parodies/interpretations of the original songs. You may use it for private study, scholarship, research or language learning purposes only