» » »

Lynyrd Skynyrd, Call Me The Breeze Bass tabs (ver.2)

Artists:  A B C D E F G H I J K L M N O P Q R S T U V W X Y Z # 

Call Me The Breeze Bass tabs (ver.2)

Lynyrd Skynyrd Tabs
 Rating:
4/5 (5 votes)
Call Me The Breeze lessons Tabs too difficult? Try these video lessons and learn fast
                -----------------------------------------------------------------------------
-----------------------------------------------------------------------------


Tuning: Standard

INTRO (8 bar rest, repeat these bars 3 times, then 2 bar rest)
G||--------|--------|
D||--------|--------|
A||--------|--------|
E||35------|--------|

VERSE/CHORUS/SOLO (repeats until break, then repeats after break until ending)
   A
G||--------|--------|--------|--------|
D||7-------|7-------|7-------|7-------|
A||----7---|----7-9-|----7---|----7-9-|
E||--------|--------|--------|--------|

                              Walk down
G||--------|--------|--------|--------|
D||7-------|7-------|7-------|7-5-4---|
A||----7---|----7-9-|----7---|------7-|
E||--------|--------|--------|--------|

   D                          Walk up
G||--------|--------|--------|--------|
D||--------|--------|--------|--4-5-6-|
A||5-------|5-------|5-------|5-------|
E||----5---|----5-7-|----5---|--------|

   A                          Walk up            
G||--------|--------|--------|--------|
D||7-------|7-------|7-------|7-------|
A||----7---|----7-9-|----7---|--4-5-6-|
E||--------|--------|--------|--------|

   E                          Walk up            
G||--------|--------|--------|--------|
D||--------|--------|--------|--4-5-6-|
A||7-------|7-------|5-------|5-------|
E||----7---|----7-9-|----5---|--------|

   A
G||--------|--------|--------|--------|
D||7-------|7-------|7-------|7-----6-|
A||----7---|----7-9-|----7---|--7-9---|
E||--------|--------|--------|--------|

BREAK appears around 3:24 (swing-style eighth notes)
NOTE: The 0 here indicates the TENTH fret, not an open string.
   A pentatonic
G||--------|--------|--------|--------|
D||-------7|7-0-----|-------7|7-0-----|
A||-----79-|----9-7-|-----79-|----9-7-|
E||5--59---|--------|5--59---|--------|

   A pentatonic
G||--------|--------|--------|--------|
D||-------7|7-0-----|-------7|7-0-----|
A||-----79-|----9-7-|-----79-|----9-7-|
E||5--59---|--------|5--59---|--------|

   D                          Walk up
G||--------|--------|--------|--------|
D||--------|--------|--------|--4-5-6-|
A||5-------|5-------|5-------|5-------|
E||----5---|----5-7-|----5---|--------|

   A pentatonic               Walk up
G||--------|--------|--------|--------|
D||-------7|7-0-----|-------7|7-------|
A||-----79-|----9-7-|-----79-|--4-5-6-|
E||5--59---|--------|5--59---|--------|

   E                 D        Walk up
G||--------|--------|--------|--------|
D||--------|--------|--------|--4-5-6-|
A||7-------|7-------|5-------|5-------|
E||----7---|----7-9-|----5---|--------|

   A
G||--------|--------|--------|--------|
D||7-------|7-------|7-------|7-----6-|
A||----7---|----7-9-|----7---|--7-9---|
E||--------|--------|--------|--------|


ENDING
   A
G||--------|--------|--------|--------|
D||--------|--------|--------|--------|
A||----4-4-|5-5-6-6-|7-------|--------|
E||5-5-----|--------|--------|--------|

G||--------|
D||--------|
A||--------|
E||6---5---|
            
Submit corrections

comments powered by Disqus
↑ Back to top | Lynyrd Skynyrd Bass for Call Me The Breeze. Lyrics for acoustic guitar and electric guitar. Tablatures and chords are parodies/interpretations of the original songs. You may use it for private study, scholarship, research or language learning purposes only