» » »

Hot To Go Tabs (ver.1)

Artists:  A B C D E F G H I J K L M N O P Q R S T U V W X Y Z # 

Hot To Go Tabs (ver.1)

Lyle Lovett
Rating:
0/5 (0 votes)

Tabs too difficult? Try these video lessons and learn fast.
                #------------------------------------------------------------------------------##

-------------------------------------------------------
-------------------------------------------------------
The entire tune consists of the following progression :

A C#m D E
A C#m C B
A C#m D D# E

Inversions are debatable, I like the following :

  A     C#m     D     E      A     C#m    C      B

--5-----9----|--5-----7---|--5-----9---|--8-----7---|
--5-----9----|--7-----9---|--5-----9---|--8-----7---|
--6-----9----|--7-----9---|--6-----9---|--9-----8---|
--7----11----|------------|--7----11---|-10-----9---|
-------------|------------|------------|------------|
-------------|------------|------------|------------|

  A     C#m     D     D#     E

--5-----4----|------------|------------|------------|
--5-----5----|--7-----8---|--9---------|------------|
--6-----6----|--7-----8---|--9---------|------------|
--7-----6----|--7-----8---|--9---------|------------|
-------------|--5-----6---|--7---------|------------|
-------------|------------|--0---------|------------|

Lyrics :

        A      C#m     D     E
Now to find a man good loving
          A   C#m      C     B
Ain't an easy thing to do
                 A       C#m         D       D#
You've got to know just what you're looking for
     E
And where to find it too

Chorus:

She's hot to go she's ready
She's hot to go right now
She's hot to go
You've got to know
That stop-and-do-it gal

We don't have no lengthy shopping
You don't have to stand in line
You don't have to care who sees your hair
You don't have to waste your time

Chorus

You can stop by in the morning
You can stop by late at night
You can stop by if you're ugly friend
Or if you look all right

Chorus

Now I crept up from behind her
She looked so fine to me
But when I stepped around her man
My eyes could plainly see

She was ugly from the front
She was ugly from the front
She was ugly from the front
And I said ugly-ugly-ugly-ugly-ugly

Well I could handle it behind her
And I liked it on the side
But don't make me look around her man 'cause she's
Ugly-ugly-ugly-ugly-ugly

She was ugly from the front
She was ugly from the front
She was ugly from the front
(pause) And I said this girl was soooo ugly....
(Well, you're ugly too!)

Chorus
            
Tabs too difficult? Try these video lessons and learn fast.




comments powered by Disqus
↑ Back to top | Tablatures and chords are parodies/interpretations of the original songs. You may use it for private study, scholarship, research or language learning purposes only