» » »

Hanging High Tabs (ver.1)

Artists:  A B C D E F G H I J K L M N O P Q R S T U V W X Y Z # 

Hanging High Tabs (ver.1)

Lykke Li
Rating:
5/5 (1 vote)

Tabs too difficult? Try these video lessons and learn fast.
                -------------------------------------------------------------------------------
-------------------------------------------------------------------------------

Tuning: Standard

Noticed there wasn't any correct chords nor tab for this song, so here's my attempt at 
what I think is the correct way to play it, according to the album version at least.

Intro/post-chorus/outro:

    Bm
e|--------------------------------------------------------------------------|
B|--------------------------------------------------------------------------|
G|--------------------------------------------------------------------------|
D|----4---------------------------------------------------------------------|
A|--2---24-5---X8-----------------------------------------------------------|
E|--------------------------------------------------------------------------|

Verses:

   G               Bm
e|--------------------------------------------------------------------------|
B|--------------------------------------------------------------------------|
G|--------------------------------------------------------------------------|
D|--------------------4-----------------------------------------------------|
A|----5----2---X6---2---24-5---X2-------------------------------------------|
E|--3---35------------------------------------------------------------------|
x2


Choruses:

    D              A                G
e|--------------------------------------------------------------------------|
B|--------------------------------------------------------------------------|
G|--------------------------------------------------------------------------|
D|----7----4----------------------------------------------------------------|
A|--5---57-----X2-----7----4---X2-----5----2---X4---------------------------|
E|------------------5---57----------3---35----------------------------------|
x2

Repeat all again! Easy as pi really.

For those wondering about the chords they are

Bm - for the intro

G and Bm for the verses

D , A and G for the choruses

and then it just repeats, end on Bm as well.

That's it really! Hope you enjoy my tab and please rate it! Oh, and leave comments!

/Stubbgubben
            
Tabs too difficult? Try these video lessons and learn fast.


comments powered by Disqus
↑ Back to top | Tablatures and chords are parodies/interpretations of the original songs. You may use it for private study, scholarship, research or language learning purposes only