» » »

Luther Vandross, Stop To Love Tabs (ver.1)

Artists:  A B C D E F G H I J K L M N O P Q R S T U V W X Y Z # 

Stop To Love Tabs (ver.1)

Luther Vandross Tabs
Rating:
0/5 (0 votes)
Stop To Love lessons Tabs too difficult? Try these video lessons and learn fast
                “Stop To Love”


Intro/Chorus:(00:15)*Keyboard arranged for guitar*
e|-6--6-----5--------6--6-----5--------6--6-----9-|
B|-7--7-----5--------7--7-----5--------7--7-----9-|
G|-6--6-----6--------6--6-----6--------6--6-----9-|
D|------------------------------------------------|
A|------------------------------------------------|
E|------------------------------------------------|

Guitar:(00:24)
e|-----------------|
B|----5-----5--5/7-|
G|-6-----6-----6/8-|
D|-----------------|
A|-----------------|
E|-----------------|

Guitar Verse:(00:41)
   .  .  . .  . . . . . . .   .  .  . .  . . . . . . .
e|-----------------------------------------------------|
B|-----------------------------------------------------|
G|------------------------7--------------------------7-|
D|--------------------7-9------------------------7-9---|
A|-5--5--5-5--5-5-7/9---------5--5--5-5--5-5-7/9-------|
E|-----------------------------------------------------|

e|------------4-5-4-------|
B|-5-----------------5----|
G|----6-----------------6-| End of Verse. Repeated through out
D|------------------------| until the Solo.
A|------------------------|
E|------------------------|

Code:
.=Palm-mute
/=Slide
            

comments powered by Disqus
↑ Back to top | Luther Vandross Tabs for Stop To Love. Lyrics for acoustic guitar and electric guitar. Tablatures and chords are parodies/interpretations of the original songs. You may use it for private study, scholarship, research or language learning purposes only