» » »

Tere Mere Saath Tabs (ver.1)

Artists:  A B C D E F G H I J K L M N O P Q R S T U V W X Y Z # 

Tere Mere Saath Tabs (ver.1)

Lucky Ali
Rating:
0/5 (0 votes)

Hard to play? Try these video lessons and learn fast.
                Tere mere saath


Intro

e|--9*-9*-9*---9*-11-12-11----9*-9*-9*---9*-----------------------------|
B|------------------------------------------12-11-12--------------------|
G|----------------------------------------------------------------------|
D|----------------------------------------------------------------------| X2
A|----------------------------------------------------------------------|
E|----------------------------------------------------------------------|



Interlude
e|---------------------------------------------------------------------------|
B|------5---7-5--------5---7/9-7-5------5---7-5------------------------------|
G|--4-6---6-----6--4-6---6----------4-6---6-----6-----4h6p4------------------|
D|----------------------------------------------------------6-4--------------|
A|---------------------------------------------------------------------------|
E|---------------------------------------------------------------------------|
            
Hard to play? Try these video lessons and learn fast. | Correct




comments powered by Disqus
↑ Back to top | Tablatures and chords are parodies/interpretations of the original songs. You may use it for private study, scholarship, research or language learning purposes only