>
 >
Le Tre Verita

Le Tre Verita Guitar Tabs

Lucio Battisti - Le Tre Verita chords, tabs, tablatures, lyrics

Guitar lessons | Add/correct | Request | Top 50 tabs Artists:  A B C D E F G H I J K L M N O P Q R S T U V W X Y Z 0-9

Le Tre Verita Guitar Tabs – Lucio Battisti

CD, Sheet music, Poster

Do you like Le Tre Verita? Share with your friends now
Tabs
le tre verita lucio battisti--
       
E||----3-7-----7---7-----7-----7---7-|------6-----6---6-----6-----6---6-|
B||--3-------8---------8-----8-------|----7-----7---------7-----7-------|
G||--------7-----7---7-----7-----7---|--7-----7-----7---7-----7-----7---|
D||----------------------------------|----------------------------------|
A||----------------------------------|----------------------------------|
E||----------------------------------|----------------------------------|

 
------5---1-5---5---1-5---1-5---5-|----0-4---0-4---4---0-4---0-4---4-|
----6---3-----3---3-----3-----3---|--3-----3-----3---3-----3-----3---|
--7-------------------------------|----------------------------------|
----------------------------------|----------------------------------|
----------------------------------|----------------------------------|
----------------------------------|----------------------------------|


------3-----3---3-----3-----3---3-|----0-2---0-2---2---0-2---0-2---2-|
--3-4---3-4---3---3-4---3-4---3---|--3-----3-----3---3-----3-----3---|
----------------------------------|----------------------------------|
----------------------------------|----------------------------------|
----------------------------------|----------------------------------|
----------------------------------|----------------------------------|


----0-1---0-1---1---0-1---0-1---1-|------0-----0---0-----0-----0---0-|
--3-----3-----3---3-----3-----3---|--2-3---2-3---2---2-3---2-3---2---|
----------------------------------|----------------------------------|
----------------------------------|----------------------------------|
----------------------------------|----------------------------------|
----------------------------------|----------------------------------|


  
------0-----0---0-----0-----0---0-|----------------------------------|
----3-----3---------3-----3-------|----3-3---3-3---3---3-3---3-3---3-|
--3-----3-----3---3-----3-----3---|--2-----2-----2---2-----2-----2---|
----------------------------------|----------------------------------|
----------------------------------|----------------------------------|
----------------------------------|----------------------------------|


 
----------------------------------|----------------------------------|
----3-3---3-3---3---3-3---3-3---3-|----3-3---3-3---3---3-3---3-3---3-|
--1-----1-----1---1-----1-----1---|--2-----2-----2---2-----2-----2---|
----------------------------------|----------------------------------|
----------------------------------|----------------------------------|
----------------------------------|----------------------------------|


  
----3-7-----7---7-----7-----7---7-|------6-----6---6-----6-----6---6-|
--3-------8---------8-----8-------|----7-----7---------7-----7-------|
--------7-----7---7-----7-----7---|--7-----7-----7---7-----7-----7---|
----------------------------------|----------------------------------|
----------------------------------|----------------------------------|
----------------------------------|----------------------------------|


 
------5---1-5---5---1-5---1-5---5-|----0-4---0-4---4---0-4---0-4---4-|
----6---3-----3---3-----3-----3---|--3-----3-----3---3-----3-----3---|
--7-------------------------------|----------------------------------|
----------------------------------|----------------------------------|
----------------------------------|----------------------------------|
----------------------------------|----------------------------------|


  
------3-----3---3-----3-----3---3-|----0-2---0-2---2---0-2---0-2---2-|
--3-4---3-4---3---3-4---3-4---3---|--3-----3-----3---3-----3-----3---|
----------------------------------|----------------------------------|
----------------------------------|----------------------------------|
----------------------------------|----------------------------------|
----------------------------------|----------------------------------|


  
----0-1---0-1---1---0-1---0-1---1-|------0-----0---0-----0-----0---0-|
--3-----3-----3---3-----3-----3---|--2-3---2-3---2---2-3---2-3---2---|
----------------------------------|----------------------------------|
----------------------------------|----------------------------------|
----------------------------------|----------------------------------|
----------------------------------|----------------------------------|


------0-----0---0-----0-----0---0-|----------------------------------|
----3-----3---------3-----3-------|----3-3---3-3---3---3-3---3-3---3-|
--3-----3-----3---3-----3-----3---|--2-----2-----2---2-----2-----2---|
----------------------------------|----------------------------------|
----------------------------------|----------------------------------|
----------------------------------|----------------------------------|


   
----------------------------------|----------------------------------|
----3-3---3-3---3---3-3---3-3---3-|----3-3---3-3---3---3-3---3-3---3-|
--1-----1-----1---1-----1-----1---|--2-----2-----2---2-----2-----2---|
----------------------------------|----------------------------------|
----------------------------------|----------------------------------|
----------------------------------|----------------------------------|


  
--0----0----0----0--------------|--------------------------|
--1----0----1----0----1-1-1-0---|--0------3----------------|
------------------------------0-|----2---------------------|
--------------------------------|--------------------------|
--------------------------------|--------------------------|
--------------------------------|--------------------------|


 
--0----0----0----0--------------|---------------------0-2-0---0-|
--1----0----1----0----1-1-1-0---|--0------------0-1-3-------1---|
------------------------------0-|----2--------2-----------------|
--------------------------------|-------------------------------|
--------------------------------|-------------------------------|
--------------------------------|-------------------------------|


 
-------------------|----------------------------------|
--3----------------|----3-3---3-3---3---3-3---3-3-3-3-|
-------------------|--2-----2-----2---2-----2-2-2-2-2-|
-------------------|----------------------------------|
-------------------|----------------------------------|
-------------------|----------------------------------|


   
----3-7-----7---7-----7-----7---7-|------6-----6---6-----6-----6---6-|
--3-------8---------8-----8-------|----7-----7---------7-----7-------|
--------7-----7---7-----7-----7---|--7-----7-----7---7-----7-----7---|
----------------------------------|----------------------------------|
----------------------------------|----------------------------------|
----------------------------------|----------------------------------|


  
------5---1-5---5---1-5---1-5---5-|----0-4---0-4---4---0-4---0-4---4-|
----6---3-----3---3-----3-----3---|--3-----3-----3---3-----3-----3---|
--7-------------------------------|----------------------------------|
----------------------------------|----------------------------------|
----------------------------------|----------------------------------|
----------------------------------|----------------------------------|


  
------3-----3---3-----3-----3---3-|----0-2---0-2---2---0-2---0-2---2-|
--3-4---3-4---3---3-4---3-4---3---|--3-----3-----3---3-----3-----3---|
----------------------------------|----------------------------------|
----------------------------------|----------------------------------|
----------------------------------|----------------------------------|
----------------------------------|----------------------------------|


    
----0-1---0-1---1---0-1---0-1---1-|------0-----0---0-----0-----0---0-|
--3-----3-----3---3-----3-----3---|--2-3---2-3---2---2-3---2-3---2---|
----------------------------------|----------------------------------|
----------------------------------|----------------------------------|
----------------------------------|----------------------------------|
----------------------------------|----------------------------------|


  
------0-----0---0-----0-----0---0-|----------------------------------|
----3-----3---------3-----3-------|----3-3---3-3---3---3-3---3-3---3-|
--3-----3-----3---3-----3-----3---|--2-----2-----2---2-----2-----2---|
----------------------------------|----------------------------------|
----------------------------------|----------------------------------|
----------------------------------|----------------------------------|


  
----------------------------------|----------------------------------|
----3-3---3-3---3---3-3---3-3---3-|----3-3---3-3---3---3-3---3-3---3-|
--1-----1-----1---1-----1-----1---|--2-----2-----2---2-----2-----2---|
----------------------------------|----------------------------------|
----------------------------------|----------------------------------|
----------------------------------|----------------------------------|


  
--0----0----0----0--------------|--------------------------|
--1----0----1----0----1-1-1-0---|--0------3----------------|
------------------------------0-|----2---------------------|
--------------------------------|--------------------------|
--------------------------------|--------------------------|
--------------------------------|--------------------------|


  
--0----0----0----0--------------|---------------------0-2-0---0-|
--1----0----1----0----1-1-1-0---|--0------------0-1-3-------1---|
------------------------------0-|----2--------2-----------------|
--------------------------------|-------------------------------|
--------------------------------|-------------------------------|
--------------------------------|-------------------------------|


                
-------------------|-------------------0-2-0---0-|-------------------|
--3----------------|--L----------0-1-3-------1---|--3----------------|
-------------------|-----------2-----------------|-------------------|
-------------------|-----------------------------|-------------------|
-------------------|-----------------------------|-------------------|
-------------------|-----------------------------|-------------------|


  
----------------------------------|----------------------------------|
----3-3---3-3---3---3-3---3-3---3-|----3-3---3-3---3-3-3-3-3-3-3-3-3-|
--2-----2-----2---2-----2-----2---|--2-----2-----2---2-2-2-2-2-2-2-2-|
----------------------------------|----------------------------------|
----------------------------------|----------------------------------|
----------------------------------|----------------------------------|


 
----3-7-----7---7-----7-----7---7-|------6-----6---6-----6-----6---6-|
--3-------8---------8-----8-------|----7-----7---------7-----7-------|
--------7-----7---7-----7-----7---|--7-----7-----7---7-----7-----7---|
----------------------------------|----------------------------------|
----------------------------------|----------------------------------|
----------------------------------|----------------------------------|


 
------5---1-5---5---1-5---1-5---5-|----0-4---0-4---4---0-4---0-4---4-|
----6---3-----3---3-----3-----3---|--3-----3-----3---3-----3-----3---|
--7-------------------------------|----------------------------------|
----------------------------------|----------------------------------|
----------------------------------|----------------------------------|
----------------------------------|----------------------------------|


  
------3-----3---3-----3-----3---3-|----0-2---0-2---2---0-2---0-2---2-|
--3-4---3-4---3---3-4---3-4---3---|--3-----3-----3---3-----3-----3---|
----------------------------------|----------------------------------|
----------------------------------|----------------------------------|
----------------------------------|----------------------------------|
----------------------------------|----------------------------------|


  
----0-1---0-1---1---0-1---0-1---1-|------0-----0---0-----0-----0---0-|
--3-----3-----3---3-----3-----3---|--2-3---2-3---2---2-3---2-3---2---|
----------------------------------|----------------------------------|
----------------------------------|----------------------------------|
----------------------------------|----------------------------------|
----------------------------------|----------------------------------|


 
------0-----0---0-----0-----0---0-|----------------------------------|
----3-----3---------3-----3-------|----3-3---3-3---3---3-3---3-3---3-|
--3-----3-----3---3-----3-----3---|--2-----2-----2---2-----2-----2---|
----------------------------------|----------------------------------|
----------------------------------|----------------------------------|
----------------------------------|----------------------------------|


   
----------------------------------|----------------------------------|
----3-3---3-3---3---3-3---3-3---3-|----3-3---3-3---3---3-3---3-3---3-|
--1-----1-----1---1-----1-----1---|--2-----2-----2---2-----2-----2---|
----------------------------------|----------------------------------|
----------------------------------|----------------------------------|
----------------------------------|----------------------------------|


 
--0----0----0----0--------------|--------------------------|
--1----0----1----0----1-1-1-0---|--0------3----------------|
------------------------------0-|----2---------------------|
--------------------------------|--------------------------|
--------------------------------|--------------------------|
--------------------------------|--------------------------|


 
--0----0----0----0--------------|----------------------|
--1----0----1----0----1-1-1-0---|--0-------------------|
------------------------------0-|----2-----------------|
--------------------------------|----------------------|
--------------------------------|----------------------|
--------------------------------|----------------------|


 
--0----0----0----0--------------|--------------------------|
--1----0----1----0----1-1-1-0---|--0------3----------------|
------------------------------0-|----2---------------------|
--------------------------------|--------------------------|
--------------------------------|--------------------------|
--------------------------------|--------------------------|


  
--0----0----0----0--------------|----------------------|
--1----0----1----0----1-1-1-0---|--0-------------------|
------------------------------0-|----2-----------------|
--------------------------------|----------------------|
--------------------------------|----------------------|
--------------------------------|----------------------|


  
--0----0----0----0--------------|--------------------------|
--1----0----1----0----1-1-1-0---|--0------3----------------|
------------------------------0-|----2---------------------|
--------------------------------|--------------------------|
--------------------------------|--------------------------|
--------------------------------|--------------------------|


 
--0----0----0----0--------------|----------------------|
--1----0----1----0----1-1-1-0---|--0-------------------|
------------------------------0-|----2-----------------|
--------------------------------|----------------------|
--------------------------------|----------------------|
--------------------------------|----------------------|


 
--0----0----0----0--------------|--------------------------|
--1----0----1----0----1-1-1-0---|--0------3----------------|
------------------------------0-|----2---------------------|
--------------------------------|--------------------------|
--------------------------------|--------------------------|
--------------------------------|--------------------------|


            
--0----0----0----0--------------|----------------------|-------||
--1----0----1----0----1-1-1-0---|--0-------------------|-------||
------------------------------0-|----2-----------------|-------||
--------------------------------|----------------------|-------||
--------------------------------|----------------------|-------||
--------------------------------|----------------------|-------||

buono studio by madoka 92





Comments


Popular Lucio Battisti tabs & chords
Acqua Azzura Chords
Acqua Azzurra Chords
Anche Per Te Chords
Anna Chords
Dieci Ragazze Chords
La Canzone Del Sole Chords
Dieci Ragazze Ukulele
Eppur Mi Son Scordato Di Te Ukulele
Io Vorrei Non Vorrei Ma Se Vuoi Ukulele
Un Avventura Ukulele


Song lyrics



↑ Back to top | Tablatures and chords are parodies/interpretations of the original songs. You may use it for private study, scholarship, research or language learning purposes only
© 2014 AZChords.com Contact us | Privacy policy | DMCA | Add/correct tabs | Request tabs | Top 50 tabs