» » »

Lucio Battisti, Io Ti Venderei Bass tabs (ver.1)

Artists:  A B C D E F G H I J K L M N O P Q R S T U V W X Y Z # 

Io Ti Venderei Bass tabs (ver.1)

Lucio Battisti Tabs
 Rating:
4/5 (4 votes)
Io Ti Venderei lessons Tabs too difficult? Try these video lessons and learn fast
                LUCIO BATTISTI - IO TI VENDEREI
BASSIST: BOB CALLERO

VERSE

E ----5--7-----5--5-------5--7------5--5-----|
A ---------6-6-------6----------6-6-------6--|
D -------------------------------------------|
G -------------------------------------------|

E -------------------------------------------|
A ----5--7-----5--5-------5--7------5--5-----|
D ---------6-6-------6----------6-6-------6--|
G -------------------------------------------|

BRIDGE

E ---3-4-5----5----4-5------------------------|
A --------------------------------------------|
D --------------------------------------------|
G --------------------------------------------|

VERSE

E ----5--7-----5--5-------5--7------5--5-----|
A ---------6-6-------6----------6-6-------6--|
D -------------------------------------------|
G -------------------------------------------|

E -------------------------------------------|
A ----5--7-----5--5-------5--7------5--5-----|
D ---------6-6-------6----------6-6-------6--|
G -------------------------------------------|

VARIATIONS

E ----5--7-----5--5-------5--7------5--5--------5---7-----|
A ---------6-6-------6----------6-6-------6------------6--|
D --------------------------------------------------------|
G --------------------------------------------------------|

E -------------------------------------------|
A ----5--7-----5--5-------5--7------5--5-----|
D ---------6-6-------6----------6-6-------6--|
G -------------------------------------------|
            
Submit corrections

comments powered by Disqus
↑ Back to top | Lucio Battisti Bass for Io Ti Venderei. Lyrics for acoustic guitar and electric guitar. Tablatures and chords are parodies/interpretations of the original songs. You may use it for private study, scholarship, research or language learning purposes only