» » »

Im Not Bulimic Bass tabs (ver.1)

Artists:  A B C D E F G H I J K L M N O P Q R S T U V W X Y Z # 

Im Not Bulimic Bass tabs (ver.1)

Lower Than Atlantis
Rating:
0/5 (0 votes)

Hard to play? Try these video lessons and learn fast.
                -----------------------------------------------------------------------------
                 I'm Not Bulimic - Lower Than Atlantis
-------------------------------------------------------------------------------


 Tuning:Drop D

 Verse x2
G|----------------|
D|----------------|
A|00-0-22-33------|
D|----------------|

G|------------------------------------|
D|------------------------------------|
A|------------------------------------|
D|3333333333333333333333-3333-0000----|

G|----------------------------------------------------|
D|----------------------------------------------------|
A|00-0-22-33---------------------------------00-0-7-6-|
D|-----------333333-xx-3333333-xx-3333333-xx----------|

 Pause

 (0.29)
G|-------------------------------|
D|-------------------------------|
A|----------------------33-------|
D|666-7-7-7----7-7-7-------2-----|

 x7
G|---------------|
D|---------------|
A|---------------|
D|33-3-----------|

G|-----------|
D|-----------|
A|-----------|
D|33-66------|

G|-------------------------------------------------|
D|-------------------------------------------------|
A|-------------------------------------------------|
D|7777777777777777-6666666666666666-3~--33----3~---|

 x2
G|-----------------------------------------------------------------------|
D|-----------------------------------------------------------------------|
A|-----------------------------------------------------------------------|
D|7-7-7-7-7-7-7-7-7-7-7-7-2-2-2-2-2-2-2-2-3-3-3-3-3-3-3-3--0~----5--6----|

 Chorus x2 (1.18)
G|----------------------------------------------------------------------|
D|----------------------------------------------------------------------|
A|----------------------------------------------------------------------|
D|0000000000000000-3333333333333333-7777777777777777-6666666666666666---|

G|------------------|
D|------------------|
A|------------------|
D|0--3--2--9--6-----|

 Pause

G|------------------------------------|
D|------------------------------------|
A|------------------------------------|
D|3333333333333333333333-3333-0000----|

G|----------------------------------------------------|
D|----------------------------------------------------|
A|00-0-22-33---------------------------------00-0-7-6-|
D|-----------333333-xx-3333333-xx-3333333-xx----------|

 Verse x1

 x2
G|----------------------------------------------------------------|
D|----------------------------------------------------------------|
A|----------------------------------------------------------------|
D|77777777777777777-22222222-3333333333333333-000000000-55555555--|

 Pause

 x1 (2.27)
G|------------------------------------|
D|------------------------------------|
A|------------------------------------|
D|7777777777777777-6666666666666666---|

 Chorus x2

G|----------------------------------------------------------------------|
D|----------------------------------------------------------------------|
A|----------------------------------------------------------------------|
D|0000000000000000-3333333333333333-7-7-7--6~--6~--6~--6~--6~--6~--66~--|

G|------------------|
D|------------------|
A|------------------|
D|0--3--2--9--6-----|

 Pause

 Bridge (3.35)
G|12p10-9~-----|
D|-------------|
A|-------------|
E|-------------|

 x4 (3.42)
G|------------------------------------------------------|
D|------------------------------------------------------|
A|---------2222-3333------------------------------------|
E|77777777-----------2~--1~--000000000000-333333333333--|

 Pause

 (4.30)
G|----------|
D|----------|
A|----------|
E|7~--------|
            
Hard to play? Try these video lessons and learn fast. | Correct




comments powered by Disqus
↑ Back to top | Tablatures and chords are parodies/interpretations of the original songs. You may use it for private study, scholarship, research or language learning purposes only