» » »

Down With The Kids Bass tabs (ver.1)

Artists:  A B C D E F G H I J K L M N O P Q R S T U V W X Y Z # 

Down With The Kids Bass tabs (ver.1)

Lower Than Atlantis
Rating:
0/5 (0 votes)

Tabs too difficult? Try these video lessons and learn fast.
                -------------------------------------------------------------------------------
-------------------------------------------------------------------------------


 Tuning:Drop D

 Intro (0.25)
G|-----------------------|
D|-----------------------|
A|4444~------------------|
D|---------444-0---------|

 Verse
G|-----------------------------------------------------------------------------|
D|-----------------------------------------------------------------------------|
A|44444444444444444---------------------44444444444444444----------------------|
D|------------------444444444-00000000--------------------444444444-0-0-0-0----|

G|--------------------------------------------------------------------------|
D|--------------------------------------------------------------------------|
A|44444444444444444-00000000-33333333-4444444444444444----------------------|
D|-----------------------------------------------------44444444-33333333----|

G|---------|
D|---------|
A|4~-------|
D|---------|


G|----------------------------------------------------------|
D|----------------------------------------------------------|
A|44444-4-4444--4444-4-4444--444--4444-4-4444---------------|
D|---------------------------------------------4~--4~--0~---|

G|----------------------------------------------------------------------|
D|----------------------------------------------------------------------|
A|44444-4-4444--4444-4-4444--444-444-----4444-4-4444--------------5555--|
D|-----------------------------------xxx--------------4~--4~--0~--------|


 Chorus
G|-----------------------------------------------------------|
D|-----------------------------------------------------------|
A|00000000-444444444-----------------------------------------|
D|-------------------6666666666-77777777777777777-66666666---|

G|-----------------------------------------------------------|
D|-----------------------------------------------------------|
A|00000000-444444444-----------------------------------------|
D|-------------------6666666666-77777777777777777-99999999---|

G|---------|
D|---------|
A|4~-------|
D|---------|

 Verse x1

G|--------------------------|
D|--------------------------|
A|----------2---------5-----|
D|2~----2-4---4-5-4-2-------|

 Bridge x3
G|-----------------------------|
D|-----------------------------|
A|444----4----4-4--------------|
D|----------------3~-----------|

 x1
G|-----------------------------|
D|-----------------------------|
A|444----4----4-4--------------|
D|----------------3333---------|

 x2
G|------------------------------------|
D|------------------------------------|
A|44-4-444-4-4-444-44-4-4-------------|
D|------------------------33333333----|

 x1
G|------------|
D|------------|
A|444-444-----|
D|------------|

 x2
G|------------------------------------|
D|------------------------------------|
A|44-4-444-4-4-444-44-4-4-------------|
D|------------------------33333333----|

G|--------------------------------------------|
D|--------------------------------------------|
A|44-4-444-4-4-444-44-4-4---------2---------5-|
D|------------------------11/-2-4---4-5-4-2---|


G|-------------------|
D|-------------------|
A|-------55-55-5-----|
D|2~-----------------|

 Chorus x4

G|-------------------|
D|-------------------|
A|4~----4-444-4-4----|
D|-------------------|
            
Tabs too difficult? Try these video lessons and learn fast.


comments powered by Disqus
↑ Back to top | Tablatures and chords are parodies/interpretations of the original songs. You may use it for private study, scholarship, research or language learning purposes only