» » »

Deadliest Catch Tabs (ver.1)

Artists:  A B C D E F G H I J K L M N O P Q R S T U V W X Y Z # 

Deadliest Catch Tabs (ver.1)

Lower Than Atlantis
Rating:
0/5 (0 votes)

Tabs too difficult? Try these video lessons and learn fast.
                -------------------------------------------------------------------------------
-------------------------------------------------------------------------------

Tuning: Drop D

Intro

e|---------------------------------------------------------------------------|
B|---------------------------------------------------------------------------|
G|---------------------------------------------------------------------------|
D|------------2---2-----------2---2-----------2---2-----------2--------------|
A|--------------------0---0---------------------------0---0------------------|
D|----2---3-----------0---0-----------2---3-----------0---0------------------|

e|---------------------------------------------------------------------------|
B|---------------------------------------------------------------------------|
G|---------------------------------------------------------------------------|
D|--2---2---5--------------2---2-----------2---2-----------2---2-------------|
A|--------------3------------------0---0---------------------------0---0-----|
D|------------------2---3----------0---0-----------2---3-----------0---0-----| x2

Verse

e|---------------------------------------------------------------------------|
B|---------------------------------------------------------------------------|
G|---------------------------------------------------------------------------|
D|--5-5-5-5-5-5-5-5---0-0-0-0-0-0-0-0---5-5-5-5-5-5-5-5---0-0-0-0-7-7-7-7----|
A|--3-3-3-3-3-3-3-3---0-0-0-0-0-0-0-0---3-3-3-3-3-3-3-3---0-0-0-0-5-5-5-5----|
D|--3-3-3-3-3-3-3-3---0-0-0-0-0-0-0-0---3-3-3-3-3-3-3-3---0-0-0-0-5-5-5-5----| x2

e|--3-3-3-3-3-3-3-3---0-0-0-0-0-0-0-0---3-3-3-3-3-3-3-3---0-0-0-0-5-5-5-5----|
B|--3-3-3-3-3-3-3-3---0-0-0-0-0-0-0-0---3-3-3-3-3-3-3-3---0-0-0-0-5-5-5-5----|
G|--3-3-3-3-3-3-3-3---0-0-0-0-0-0-0-0---3-3-3-3-3-3-3-3---0-0-0-0-5-5-5-5----|
D|--5-5-5-5-5-5-5-5---0-0-0-0-0-0-0-0---5-5-5-5-5-5-5-5---0-0-0-0-7-7-7-7----|
A|--3-3-3-3-3-3-3-3---0-0-0-0-0-0-0-0---3-3-3-3-3-3-3-3---0-0-0-0-5-5-5-5----|
D|--3-3-3-3-3-3-3-3---0-0-0-0-0-0-0-0---3-3-3-3-3-3-3-3---0-0-0-0-5-5-5-5----| x2


2nd time play a bar on 2 rather than 5

Chorus

e|---------------------------------------------------------------------------|
B|---2--2--2--2--2--2--------------------------------------------------------|
G|---2--2--2--2--2--2---5--5--5--5--5--5-------------------------------------|
D|---2--2--2--2--2--2---2--2--2--2--2--2---5--5--5--5--5--5------------------|
A|----------------------3--3--3--3--3--3---5--5--5--5--5--5------------------|
D|-----------------------------------------0--0--0--0--0--0-----2-3-5-5-5----|

e|------------------------------------------------------------------------------------|
B|---2--2--2--2--2--2-----------------------------------------------------------------|
G|---2--2--2--2--2--2---5--5--5--5--5--5----------------------10-10-10-10-9--9--9--9-|
D|---2--2--2--2--2--2---2--2--2--2--2--2---5--5--5--5--5--5---8--8--8--8--7--7--7--7-|
A|----------------------3--3--3--3--3--3---5--5--5--5--5--5---8--8--8--8--7--7--7--7-|
D|-----------------------------------------0--0--0--0--0--0---------------------------|

x2

bass and drum fill
Verse
Chorus
bass and drum Fill
Then guitar plays

e|--12---------|
B|-----10------|   pressing lightly at first
G|--------12---|   press harder and harder
D|-------------|
A|-------------|
D|-------------|

Play Chorus, but first time play the first two chords hard and only once then finish on intro
            
Tabs too difficult? Try these video lessons and learn fast.




comments powered by Disqus
↑ Back to top | Tablatures and chords are parodies/interpretations of the original songs. You may use it for private study, scholarship, research or language learning purposes only