» » »

Lower Than Atlantis, Deadliest Catch Bass tabs (ver.1)

Artists:  A B C D E F G H I J K L M N O P Q R S T U V W X Y Z # 

Deadliest Catch Bass tabs (ver.1)

Lower Than Atlantis Tabs
 Rating:
4/5 (4 votes)
Deadliest Catch lessons Tabs too difficult? Try these video lessons and learn fast
1
                LOWER THAN ATLANTIS
DEADLIEST CATCH
TUNING DROP D





INTRO 0:14 0:27

G-----------------------------------------------------------------------------|
D-----------------------------------------------------------------------------|
A-----------------------------------------------------------------------------|
E-3-3-3-3-3-3-3-3-3-0-0-0-0-0-0-0-0-0-3-3-3-3-3-3-3-3-3-0-0-0-0-0-0-0-0-5-5-5-|

------------------------------------------------------------------------------|
------------------------------------------------------------------------------|
------------------------------------------------------------------------------|
3-3-3-3-3-3-3-3-3-0-0-0-0-0-0-0-0-3-3-3-3-3-3-3-3-3-0-0-----------------------|


1ST VERSE

G-----------------------------------------------------------------------------|
D-----------------------------------------------------------------------------|
A-----------------------------------------------------------------------------|
E-3-3-3-3-3-3-3-3-3-0-0-0-0-0-0-0-0-0-3-3-3-3-3-3-3-3-3-0-0-0-0-0-0-0-0-5-5-5-|

------------------------------------------------------------------------------|
------------------------------------------------------------------------------|
------------------------------------------------------------------------------|
3-3-3-3-3-3-3-3-3-0-0-0-0-0-0-0-0-3-3-3-3-3-3-3-3-3-0-0-----------------------| X4


CHORUS

G----------------------------------------------------------------------------|
D----------------------------------------------------------------------------|
A--------------------------------------------------------------88888777------|
E-7-7-77-9-10-----0-0-0-000-2-3-555-----7-7-7-9-10----3-3-3-3-3--------------|


VERSE 2

G----------------------------------------------------------------------------|
D---2-2---2-2---2-2---2-25---2-2--2-2---2-2----------------------------------|
A-------------------------3--------------------------------------------------|
E-23---00----023---0-0-----23---00----23---0-0-------------------------------|


NOT ALL THE TAB BUT YOU CAN WORK IT OUT OF THIS
            
Submit corrections

comments powered by Disqus
↑ Back to top | Lower Than Atlantis Bass for Deadliest Catch. Lyrics for acoustic guitar and electric guitar. 1 Tablatures and chords are parodies/interpretations of the original songs. You may use it for private study, scholarship, research or language learning purposes only