» » »

Lower Than Atlantis, Beach Like Tree Tabs (ver.1)

Artists:  A B C D E F G H I J K L M N O P Q R S T U V W X Y Z # 

Beach Like Tree Tabs (ver.1)

Lower Than Atlantis Tabs
Rating:
0/5 (0 votes)
Beach Like Tree lessons Tabs too difficult? Try these video lessons and learn fast
                The Tuning IS Drop D 

0:00 - 0:15
Intro:
E|------------|----------------|----------------|--------------------------|
B|------------|----------------|----------------|--------------------------|
G|------------|----------------|----------------|--------------------------|
D|--4---------|--4-------------|--4-------------|---4------4-2-0-----------|
A|-----5-7-7-7|--------7-------|--------5-7-7-7-|--------5-----------------|
D|-5--0-------|0---0-0---0-2-4-|-5--0-0---------|--0-0-0-------------------|

0:15 - 0:30 
Verse: listen for strumming
*Palm Mute*
E|---------------|---------------------------------------------------------|
B|---------------|---------------------------------------------------------|
G|---------------|---------------------------------------------------------|
D|---------------|---------------------------------------------------------|
A|-5-5-5-5-7-7-7-|0-0-0-0-2-0-2-4-x2---------------------------------------|
D|-5-5-5-5-5-5-5-|0-0-0-0-2-0-2-4------------------------------------------|
   * * * * * * *  * * * * * * * * 

0:30 - 0:45 

Chorus:
E|-----------------------|-------------------------------------------------|
B|-----------------------|-------------------------------------------------|
G|-----------------------|-------------------------------------------------|
D|-55-00-22-0-4----------|--55-00-2-4-0~-----------------------------------|
A|-55-00-22-0-4---3x-----|--55-00-2-4-0~-----------------------------------|
D|-55-00-22-0-4----------|--55-00-2-4-0~-----------------------------------|

0:46 - 1:00 

Post-Chorus:
E|------------|----------------|----------------|--------------------------|
B|------------|----------------|----------------|--------------------------|
G|------------|----------------|----------------|--------------------------|
D|--4---------|--4-------------|--4-------------|---4------4-2-0-----------|
A|-----5-7-7-7|--------7-------|--------5-7-7-7-|--------5-----------------|
D|-5--0-------|0---0-0---0-2-4-|-5--0-0---------|--0-0-0-------------------|

1:01 - 1:16

Verse2:
*Palm Mute*
E|--------------------------|------------------------------------------|
B|--------------------------|------------------------------------------|
G|--------------------------|------------------------------------------|
D|--------------------------|------------------------------------------|
A|-55555555-0000020024--3x--|---55555555-00000202-4--------------------|
D|-55555555-0000020024------|---55555555 00000202-4--------------------|
   ******** **********          ******** *******

1:16 - 1:31

Chorus:
E|-----------------------|-------------------------------------------------|
B|-----------------------|-------------------------------------------------|
G|-----------------------|-------------------------------------------------|
D|-55-00-22-0-4----------|--55-00-2-4-0~-----------------------------------|
A|-55-00-22-0-4---3x-----|--55-00-2-4-0~-----------------------------------|
D|-55-00-22-0-4----------|--55-00-2-4-0~-----------------------------------|

1:31 - 1:46 

Bridge:
Guitar1 -
E|-------------------------------------------------------------------------|
B|-15--15--15--15--15--15--15--15--15--15--15--15--15--15--15--15--15--15--|
G|---14--14--14--14--14--14--14--14--14--14--14--14--14--14--14--14--14--14|
D|-------------------------------------------------------------------------|
A|-------------------------------------------------------------------------|
D|-------------------------------------------------------------------------|

Guitar2 - 
(plays in the background of guitar1)
E--------------------------|
B--------------------------|
G--------------------------|
D---5--0--999--2--4--------|
A---5--0--999--2--4--------|
D---5--0--999--2--4--------|

-2 Second Pause-

Guitar1 - 

E|---------------------------|---------------------------------------------|
B|-15--15--15--15--15--15----|---------------------------------------------|
G|---14--14--14--14--14--14--|---------------------------------------------|
D|---------------------------|--240~---------------------------------------|
A|---------------------------|---------------------------------------------|
D|---------------------------|---------------------------------------------|

Chorus:
1:46 - 2:01 

E|-----------------------|-------------------------------------------------|
B|-----------------------|-------------------------------------------------|
G|-------44--------------|------------------------------------------------
D|-55-00-xx-0-4----------|--55-00-2-4-0~-----------------------------------|
A|-55-00-22-0-4---3x-----|--55-00-2-4-0~-----------------------------------|
D|-55-00----0-4----------|--55-00-2-4-0~-----------------------------------|

Outro:

2:01 - 2:16
E|------------|----------------|----------------|--------------------------|
B|------------|----------------|----------------|--------------------------|
G|------------|----------------|----------------|--------------------------|
D|--4---------|--4-------------|--4-------------|---4------4-2-0-----------|
A|-----5-7-7-7|--------7-------|--------5-7-7-7-|--------5-----------------|
D|-5--0-------|0---0-0---0-2-4-|-5--0-0---------|--0-0-0-------------------|

E|------------|----------------|----------------|--------------------------|
B|------------|----------------|----------------|--------------------------|
G|------------|----------------|----------------|--------------------------|
D|--4---------|--4-------------|--4-------------|---4----------------------|
A|-----5-7-7-7|--------7-------|--------5-7-7-7-|-----5--5~----------------|
D|-5--0-------|0---0-0---0-2-4-|-5--0-0---------|--0---0-------------------|



Hopo182 :)  
please comment and rate :) 
Any corrections please say :) 
            

comments powered by Disqus
↑ Back to top | Lower Than Atlantis Tabs for Beach Like Tree. Lyrics for acoustic guitar and electric guitar. Tablatures and chords are parodies/interpretations of the original songs. You may use it for private study, scholarship, research or language learning purposes only