>
 >
Asl

Asl Guitar Tabs

Lower Than Atlantis - Asl chords, tabs, tablatures, lyrics

Guitar lessons | Add/correct | Request | Top 50 tabs Artists:  A B C D E F G H I J K L M N O P Q R S T U V W X Y Z 0-9

Asl Guitar Tabs – Lower Than Atlantis

CD, Sheet music, Poster

Do you like Asl? Share with your friends now
Tabs
------------------------  LOWER THAN ATLANTIS-------------------

Tuning:Drop D

INTRO/VERSE
e|---------------------------------------|
B|---------------------------------------|
G|---------------------------------------|
D|--------------------3------2----3------|
A|-----------4-1-------------------------|
D|-0-2-3-0-3------0h3---0h2----3---------| 

e|---------------------------------------|
B|---------------------------------------|
G|---------------------------------------|
D|--------------------3------2----3------|
A|-----------4-1-------------------------|
D|-0-2-3-0-3------0h3---0h2----3---------|

e|-------------------------|
B|-------------------------|
G|-------------------------|
D|-----3-------6-----------|
A|---3-------6-------------|
D|-3-------6---------------|

e|---------------------------------------|
B|---------------------------------------|
G|---------------------------------------|
D|--------------------3------2----3------|
A|-----------4-1-------------------------|
D|-0-2-3-0-3------0h3---0h2----3---------|

e|-----------------------|
B|-----------------------|
G|-----------------------|
D|-----------------------|
A|-----------4-1---------|
D|-0-2-3-0-3-----3 2-----|

Repeat that Twice


e|--3-3-3-3-3-3-3-3-3-3-3-3-3-3-3-3-3-3-3-3-3-3-3-3-3-3-3-3-------------|
B|--5-5-5-5-5-5-5-5-5-5-5-5-5-5-5-5-5-5-5-5-5-5-5-5-5-5-5-5-------------|
G|--3-3-3-3-3-3-3-3-3-3-3-3-3-3-3-3-3-3-3-3-3-3-3-3-3-3-3-3-3-3-3-2-2-2-|
D|--3-3-3-3-3-3-3-3-3-3-3-3-3-3-3-3-3-3-3-3-3-3-3-3-3-3-3-3-3-3-3-2-2-2-|
A|--4-4-4-4-4-4-4-4-4-4-4-4-4-4-4-4-4-4-4-4-4-4-4-4-4-4-4-4-2-2-2-1-1-1-|
D|--3-3-3-3-3-3-3-3-3-3-3-3-3-3-3-3-3-3-3-3-3-3-3-3-3-3-3-3-3-3-3-2-2-2-|


e|----------------------------------------------------------------|
B|--5--5--5--5--5--5--5--5--5--5--5--5----------------------------|
G|--3--3--3--3--3--3--3--3--3--3--3--3-3-3-3-3-3-3-3-3-3-3-3-3-33-|
D|--3--3--3--3--3--3--3--3--3--3--3--3-3-3-3-3-3-3-3-3-3-3-3-3-33-|
A|--4--4--4--4--4--4--4--4--4--4--4--4-1-1-1-1-1-1-1-1-1-1-1-1-11-|
D|--3--3--3--3--3--3--3--3--3--3--3--3----------------------------|

e|---10-10------|
B|---11-11------|
G|---11-11------|
D|--------------|
A|--------------|
D|--------------|

e|--------------------------------------------|
B|--------------------------------------------|
G|-10-10-10-10-10-10-10-10-10-10-10-10-9--9---|
D|-7--7--7--7--7--7--7--7--7--7--7--7--7--7---|
A|--------------------------------------------|
D|--------------------------------------------|

e|-------------------------------------7-7----|
B|-------------------------------------7-7----|
G|-10-10-10-10-10-10-10-10-10-10-10-10-7-7----|
D|-7--7--7--7--7--7--7--7--7--7--7--7---------|
A|--------------------------------------------|
D|--------------------------------------------|


e|--------------------------------------------|
B|--------------------------------------------|
G|-10-10-10-10-10-10-10-10-10-10-10-10-9--9---|
D|-7--7--7--7--7--7--7--7--7--7--7--7--7--7---|
A|--------------------------------------------|
D|--------------------------------------------|

e|--------------------------------------------|
B|--------------------------------------------|
G|-10-10-10-10-10-10-10-10-10-10-10-10-9--9---|
D|-7--7--7--7--7--7--7--7--7--7--7--7--7--7---|
A|--------------------------------------------|
D|--------------------------------------------|

e|--------------------------------------------|
B|--------------------------------------------|
G|-10-10-10-10-10-10-10-10-10-10-10-10-9--9---|
D|-7--7--7--7--7--7--7--7--7--7--7--7--7--7---|
A|--------------------------------------------|
D|--------------------------------------------|

e|--------------------------------------------|
B|--------------------------------------------|
G|-10-10-10-10-10-10-10-10-10-10-10-10-9--9---|
D|-7--7--7--7--7--7--7--7--7--7--7--7--7--7---|
A|--------------------------------------------|
D|--------------------------------------------|

e|----------------------------------------|
B|----------------------------------------|
G|-1010-10-1010-10-1010-10-1010-10--------|
D|-7-7--7--7-7--7--7-7--7--7-7--7---------|
A|-8-8--8--8-8--8--8-8--8--8-8--8---------|
D|-8-8--8--8-8--8--8-8--8--8-8--8---------|

e|-----------------------------------------|
B|-----------------------------------------|
G|-----------------------------------------|
D|--55-5-55-5-55-5-55-5--------------------|
A|--55-5-55-5-55-5-55-5--------------------|
E|--55-5-55-5-55-5-55-5--------------------|

e|----------------------------------------------------|
B|----------------------------------------------------|
G|-10-10-10-10-10-10-10-10-10-10-10-10-10-10-10-10----|
D|-7--7--7--7--7--7--7--7--7--7--7--7--7--7--7--7-----|
A|-8--8--8--8--8--8--8--8--8--8--8--8--8--8--8--8-----|
D|-8--8--8--8--8--8--8--8--8--8--8--8--8--8--8--8-----|

e|----------------------------------7-7-7---------|
B|----------------------------------7-7-7---------|
G|----------------------------------7-7-7---------|
D|--5-5-5-5-5-5-5-5-5-5-5-5-0-0-0---6-6-6---------|
A|--5-5-5-5-5-5-5-5-5-5-5-5-0-0-0-----------------|
D|--5-5-5-5-5-5-5-5-5-5-5-5-0-0-0-----------------|

e|----------------------------------------|
B|----------------------------------------|
G|-1010-10-1010-10-1010-10-1010-10--------|
D|-7-7--7--7-7--7--7-7--7--7-7--7---------|
A|-8-8--8--8-8--8--8-8--8--8-8--8---------|
D|-8-8--8--8-8--8--8-8--8--8-8--8---------|

e|-----------------------------------------|
B|-----------------------------------------|
G|-----------------------------------------|
D|--55-5-55-5-55-5-55-5--------------------|
A|--55-5-55-5-55-5-55-5--------------------|
D|--55-5-55-5-55-5-55-5--------------------|

e|----------------------------------------------------|
B|----------------------------------------------------|
G|-10-10-10-10-10-10-10-10-10-10-10-10-10-10-10-10----|
D|-7--7--7--7--7--7--7--7--7--7--7--7--7--7--7--7-----|
A|-8--8--8--8--8--8--8--8--8--8--8--8--8--8--8--8-----|
D|-8--8--8--8--8--8--8--8--8--8--8--8--8--8--8--8-----|

e|-----------------------------------------------|
B|-----------------------------------------------|
G|-----------------------------------------------|
D|--5-5-5-5-5-5-5-5-5-5-5-5--0-0-----------------|
A|--5-5-5-5-5-5-5-5-5-5-5-5--0-0-----------------|
D|--5-5-5-5-5-5-5-5-5-5-5-5--0-0-----------------|


e|-------------------------------------------------------------------------|
B|-10-10-10-10-10-10-10-10-10-10-10-10-10-10-10-10-10-10-10-10-10-10-10-10-|
G|-------------------------------------------------------------------------|
D|-6--6--6--6--6--6--6--6--6--6--6--6--6--6--6--6--6--6--6--6--6--6--6--6--|
A|-------------------------------------------------------------------------|
D|-------------------------------------------------------------------------|

e|-----------------------------------------------------------------|
B|-----------------------------------------------------------------|
G|------10----10-10-10-10-10-10-10-10-10-10---10--------10------10-|
D|--0-0----00-------------------------------0----0-----------------|
A|--0-0-6--00-6--6--6--6--6--6--6--6--6--6--0-6--0------6-------6--|
D|--0-0----00-------------------------------0----0-0000----0000----|

e|---------------------------------------|
B|---------------------------------------|
G|---------------------------------------|
D|--------------------3------2----3------|
A|-----------4-1-------------------------|
D|-0-2-3-0-3------0h3---0h2----3---------| 

e|---------------------------------------|
B|---------------------------------------|
G|---------------------------------------|
D|--------------------3------2----3------|
A|-----------4-1-------------------------|
D|-0-2-3-0-3------0h3---0h2----3---------|

e|-------------------------|
B|-------------------------|
G|-------------------------|
D|-----3-------6-----------|
A|---3-------6-------------|
D|-3-------6---------------|

e|---------------------------------------|
B|---------------------------------------|
G|---------------------------------------|
D|--------------------3------2----3------|
A|-----------4-1-------------------------|
D|-0-2-3-0-3------0h3---0h2----3---------|

e|-----------------------|
B|-----------------------|
G|-----------------------|
D|-----------------------|
A|-----------4-1---------|
D|-0-2-3-0-3-----3 2-----|

e|--3-3-3-3-3-3-3-3-3-3-3-3-3-3-3-3-3-3-3-3-3-3-3-3-3-3-3-3-------------|
B|--5-5-5-5-5-5-5-5-5-5-5-5-5-5-5-5-5-5-5-5-5-5-5-5-5-5-5-5-------------|
G|--3-3-3-3-3-3-3-3-3-3-3-3-3-3-3-3-3-3-3-3-3-3-3-3-3-3-3-3-3-3-3-2-2-2-|
D|--3-3-3-3-3-3-3-3-3-3-3-3-3-3-3-3-3-3-3-3-3-3-3-3-3-3-3-3-3-3-3-2-2-2-|
A|--4-4-4-4-4-4-4-4-4-4-4-4-4-4-4-4-4-4-4-4-4-4-4-4-4-4-4-4-2-2-2-1-1-1-|
D|--3-3-3-3-3-3-3-3-3-3-3-3-3-3-3-3-3-3-3-3-3-3-3-3-3-3-3-3-3-3-3-2-2-2-|


e|----------------------------------------------------------------|
B|--5--5--5--5--5--5--5--5--5--5--5--5----------------------------|
G|--3--3--3--3--3--3--3--3--3--3--3--3-3-3-3-3-3-3-3-3-3-3-3-3-33-|
D|--3--3--3--3--3--3--3--3--3--3--3--3-3-3-3-3-3-3-3-3-3-3-3-3-33-|
A|--4--4--4--4--4--4--4--4--4--4--4--4-1-1-1-1-1-1-1-1-1-1-1-1-11-|
D|--3--3--3--3--3--3--3--3--3--3--3--3----------------------------|

e|---10-10------|
B|---11-11------|
G|---11-11------|
D|--------------|
A|--------------|
D|--------------|


e|---------------------------------------------|
B|---------------------------------------------|
G|---------------------------------------------|
D|-------/----------/--------------------------|
A|-------/----------/--------------------------|
D|-------/PICKSLIDE-/--------------------------|

e|---------------------------------------|
B|---------------------------------------|
G|---------------------------------------|
D|--------------------3------2----3------|
A|-----------4-1-------------------------|
D|-0-2-3-0-3------0h3---0h2----3---------| 

e|---------------------------------------|
B|---------------------------------------|
G|---------------------------------------|
D|--------------------3------2----3------|
A|-----------4-1-------------------------|
D|-0-2-3-0-3------0h3---0h2----3---------|

e|---------------------------------------|
B|---------------------------------------|
G|---------------------------------------|
D|--------------------3------2----3------|
A|-----------4-1-------------------------|
D|-0-2-3-0-3------0h3---0h2----3---------| 


e|---------------------------------------|
B|---------------------------------------|
G|---------------------------------------|
D|--------------------3------2----3------|
A|-----------4-1-------------------------|
D|-0-2-3-0-3------0h3---0h2----3---------|

e|-------------------------------------------------------------------------|
B|-------------------------------------------------------------------------|
G|-------------------------------------------------------------------------|
D|--1----------------------------------------------------------------------|
A|--1----------------------------------------------------------------------|
D|--1----------------------------------------------------------------------|

e|----------------------------------------|
B|----------------------------------------|
G|-1010-10-1010-10-1010-10-1010-10--------|
D|-7-7--7--7-7--7--7-7--7--7-7--7---------|
A|-8-8--8--8-8--8--8-8--8--8-8--8---------|
D|-8-8--8--8-8--8--8-8--8--8-8--8---------|

e|-----------------------------------------|
B|-----------------------------------------|
G|-----------------------------------------|
D|--55-5-55-5-55-5-55-5--------------------|
A|--55-5-55-5-55-5-55-5--------------------|
E|--55-5-55-5-55-5-55-5--------------------|

e|----------------------------------------------------|
B|----------------------------------------------------|
G|-10-10-10-10-10-10-10-10-10-10-10-10-10-10-10-10----|
D|-7--7--7--7--7--7--7--7--7--7--7--7--7--7--7--7-----|
A|-8--8--8--8--8--8--8--8--8--8--8--8--8--8--8--8-----|
D|-8--8--8--8--8--8--8--8--8--8--8--8--8--8--8--8-----|

e|----------------------------------7-7-7---------|
B|----------------------------------7-7-7---------|
G|----------------------------------7-7-7---------|
D|--5-5-5-5-5-5-5-5-5-5-5-5-0-0-0---6-6-6---------|
A|--5-5-5-5-5-5-5-5-5-5-5-5-0-0-0-----------------|
D|--5-5-5-5-5-5-5-5-5-5-5-5-0-0-0-----------------|

e|----------------------------------------|
B|----------------------------------------|
G|-1010-10-1010-10-1010-10-1010-10--------|
D|-7-7--7--7-7--7--7-7--7--7-7--7---------|
A|-8-8--8--8-8--8--8-8--8--8-8--8---------|
D|-8-8--8--8-8--8--8-8--8--8-8--8---------|

e|-----------------------------------------|
B|-----------------------------------------|
G|-----------------------------------------|
D|--55-5-55-5-55-5-55-5--------------------|
A|--55-5-55-5-55-5-55-5--------------------|
D|--55-5-55-5-55-5-55-5--------------------|

e|----------------------------------------------------|
B|----------------------------------------------------|
G|-10-10-10-10-10-10-10-10-10-10-10-10-10-10-10-10----|
D|-7--7--7--7--7--7--7--7--7--7--7--7--7--7--7--7-----|
A|-8--8--8--8--8--8--8--8--8--8--8--8--8--8--8--8-----|
D|-8--8--8--8--8--8--8--8--8--8--8--8--8--8--8--8-----|

e|---------------------harmonics*12-12-12-12-12-12-12-12*--------|
B|------------------------------*12-12-12-12-12-12-12-12*--------|
G|------------------------------*12-12-12-12-12-12-12-12*--------|
D|--5-5-5-5-5-5-5-5-5-5-5-5-----*12-12-12-12-12-12-12-12*--------|
A|--5-5-5-5-5-5-5-5-5-5-5-5-----*12-12-12-12-12-12-12-12*--------|
D|--5-5-5-5-5-5-5-5-5-5-5-5-----*12-12-12-12-12-12-12-12*--------|


e|---------------------------------------|
B|---------------------------------------|
G|---------------------------------------|
D|--------------------3------2----3------|
A|-----------4-1-------------------------|
D|-0-2-3-0-3------0h3---0h2----3---------|





Comments


Popular Lower Than Atlantis tabs & chords
Beech Like The Tree Bass Tabs
Down With The Kids Bass Tabs
Taping Songs Off The Radio Bass Tabs
Merry Christmas Wherever You Are Chords
Beach Like Tree Tabs
Deadliest Catch Tabs
Far Q Intro Tabs
Grounded Intro Tabs
If The World Was To End Tabs
Motorway Of Life Tabs


Song lyrics



↑ Back to top | Tablatures and chords are parodies/interpretations of the original songs. You may use it for private study, scholarship, research or language learning purposes only
© 2014 AZChords.com Contact us | Privacy policy | DMCA | Add/correct tabs | Request tabs | Top 50 tabs