» » »

Venus Tabs (ver.1)

Artists:  A B C D E F G H I J K L M N O P Q R S T U V W X Y Z # 

Venus Tabs (ver.1)

Low
Rating:
0/5 (0 votes)

Hard to play? Try these video lessons and learn fast.
                This is my first tabbut I'm fairly sure that it's 100% accurate. Was just fooling around 
in DGDGAD (all thanks to LOW) and there it was :)

And it goes like this the whole song except for the bridge:

Venus                   Have you ever seen us?

D |--0--------------|--0--------------|--0--------------|--0--------------||
A |--5--------------|--0--------------|--0--------------|--0--------------||
G |--0--------------|--0--------------|--0--------------|--0--------------||
D |--0--------------|--7--------------|--9--------------|--10-------------||
G |--0--------------|--x--------------|--X--------------|--0--------------||
D |--0--------------|--7--------------|--9--------------|--10-------------||


Bridge:
Have you seen my dreams?   They're the same as yours it seems

D |--7--------------|--7--------------|--7--------------|--7----------0--||
A |--9--------------|--7--------------|--9--------------|--7----------0--||
G |--7--------------|--9--------------|--7--------------|--9----------0--||
D |--7--------------|--7--------------|--7--------------|--7----------10-||
G |--7--------------|--9--------------|--7--------------|--9----------0--||
D |-----------------|--7--------------|-----------------|--7----------10-||

and then back to verse!

The strumming pattern is really easy if you play along to the song. It sounds beautiful 
on a dobro-guitar!
            
Hard to play? Try these video lessons and learn fast. | Correct




comments powered by Disqus
↑ Back to top | Tablatures and chords are parodies/interpretations of the original songs. You may use it for private study, scholarship, research or language learning purposes only