» » »

Low, Sunflower Tabs (ver.1)

Artists:  A B C D E F G H I J K L M N O P Q R S T U V W X Y Z # 

Sunflower Tabs (ver.1)

Low Tabs
 Rating:
4/5 (8 votes)
Sunflower lessons Tabs too difficult? Try these video lessons and learn fast
1
                LOW - Sunflower (Trasncription by Hanoihancock)
DGDGAD

  (Guitar Intro)
D |--9--------------|--7--------------|--5--------------|--0--------------||
A |--10-------------|--9--------------|--7--------------|--2--------------||
G |--9--------------|--7--------------|--5--------------|--0--------------||
D |--9--------------|--7--------------|--5--------------|--0--------------||
G |--9--------------|--7--------------|--5--------------|--0--------------||
D |--X--------------|--X--------------|--X--------------|--X--------------||

  (Drums/Bass) 
D |--9--------------|--7--------------|--5--------------|--0--------------||
A |--10-------------|--9--------------|--7--------------|--2--------------||
G |--9--------------|--7--------------|--5--------------|--0--------------||
D |--9--------------|--7--------------|--5--------------|--0--------------||
G |--9--------------|--7--------------|--5--------------|--0--------------||
D |--X--------------|--X--------------|--X--------------|--X--------------||

  When they          found             your    body  
D |--9--------------|--7--------------|--5--------------|--0--------------||
A |--10-------------|--9--------------|--7--------------|--2--------------||
G |--9--------------|--7--------------|--5--------------|--0--------------||
D |--9--------------|--7--------------|--5--------------|--0--------------||
G |--9--------------|--7--------------|--5--------------|--0--------------||
D |--X--------------|--X--------------|--X--------------|--X--------------||

   Giant              X's on your       eyes
D |--9--------------|--7--------------|--5--------------|--0--------------||
A |--10-------------|--9--------------|--7--------------|--2--------------||
G |--9--------------|--7--------------|--5--------------|--0--------------||
D |--9--------------|--7--------------|--5--------------|--0--------------||
G |--9--------------|--7--------------|--5--------------|--0--------------||
D |--X--------------|--X--------------|--X--------------|--X--------------||

  And with your       half of the ransom  
D |--9--------------|--7--------------|--5--------------|--0--------------||
A |--10-------------|--9--------------|--7--------------|--2--------------||
G |--9--------------|--7--------------|--5--------------|--0--------------||
D |--9--------------|--7--------------|--5--------------|--0--------------||
G |--9--------------|--7--------------|--5--------------|--0--------------||
D |--X--------------|--X--------------|--X--------------|--X--------------||

  You bought some sweet sweet sweet sunflowers
D |--9--------------|--7--------------|--5--------------|--0--------------||
A |--10-------------|--9--------------|--7--------------|--2--------------||
G |--9--------------|--7--------------|--5--------------|--0--------------||
D |--9--------------|--7--------------|--5--------------|--0--------------||
G |--9--------------|--7--------------|--5--------------|--0--------------||
D |--X--------------|--X--------------|--X--------------|--X--------------||

  and gave them to the night.
D |--2--------------|--0--------------|--0--------------||
A |--3--------------|--2--------------|--2--------------||
G |--2--------------|--0--------------|--0--------------||
D |--2--------------|--0--------------|--0--------------||
G |--2--------------|--0--------------|--0--------------||
D |--X--------------|--X--------------|--0--------------||






  Underneath           the star of david
D |--9--------------|--7--------------|--5--------------|--0--------------||
A |--10-------------|--9--------------|--7--------------|--2--------------||
G |--9--------------|--7--------------|--5--------------|--0--------------||
D |--9--------------|--7--------------|--5--------------|--0--------------||
G |--9--------------|--7--------------|--5--------------|--0--------------||
D |--X--------------|--X--------------|--X--------------|--X--------------||

   A hundred           years behind my eyes
D |--9--------------|--7--------------|--5--------------|--0--------------||
A |--10-------------|--9--------------|--7--------------|--2--------------||
G |--9--------------|--7--------------|--5--------------|--0--------------||
D |--9--------------|--7--------------|--5--------------|--0--------------||
G |--9--------------|--7--------------|--5--------------|--0--------------||
D |--X--------------|--X--------------|--X--------------|--X--------------||

  And with my          half of the ransom
D |--9--------------|--7--------------|--5--------------|--0--------------||
A |--10-------------|--9--------------|--7--------------|--2--------------||
G |--9--------------|--7--------------|--5--------------|--0--------------||
D |--9--------------|--7--------------|--5--------------|--0--------------||
G |--9--------------|--7--------------|--5--------------|--0--------------||
D |--X--------------|--X--------------|--X--------------|--X--------------||

  I bought some sweet sweet sweet sunflowers
D |--9--------------|--7--------------|--5--------------|--0--------------||
A |--10-------------|--9--------------|--7--------------|--2--------------||
G |--9--------------|--7--------------|--5--------------|--0--------------||
D |--9--------------|--7--------------|--5--------------|--0--------------||
G |--9--------------|--7--------------|--5--------------|--0--------------||
D |--X--------------|--X--------------|--X--------------|--X--------------||

  and gave them to the night.
D |--2--------------|--0--------------|--0--------------||
A |--3--------------|--2--------------|--2--------------||
G |--2--------------|--0--------------|--0--------------||
D |--2--------------|--0--------------|--0--------------||
G |--2--------------|--0--------------|--0--------------||
D |--X--------------|--X--------------|--0--------------||

(Bridge)
D |--11--|--9--|--7--|--5--|--4--|--2--|--0--||
A |--12--|--10-|--9--|--7--|--5--|--3--|--2--||
G |--11--|--9--|--7--|--5--|--4--|--2--|--0--||
D |--11--|--9--|--7--|--5--|--4--|--2--|--0--||
G |--11--|--9--|--7--|--5--|--4--|--2--|--0--||
D |--X---|--X--|--X--|--X--|--X--|--X--|--X--||

(Instrumental)
D |--9--------------|--7--------------|--5--------------|--0--------------||
A |--10-------------|--9--------------|--7--------------|--2--------------||
G |--9--------------|--7--------------|--5--------------|--0--------------||
D |--9--------------|--7--------------|--5--------------|--0--------------||
G |--9--------------|--7--------------|--5--------------|--0--------------||
D |--X--------------|--X--------------|--X--------------|--X--------------||







D |--9--------------|--7--------------|--5--------------|--0--------------||
A |--10-------------|--9--------------|--7--------------|--2--------------||
G |--9--------------|--7--------------|--5--------------|--0--------------||
D |--9--------------|--7--------------|--5--------------|--0--------------||
G |--9--------------|--7--------------|--5--------------|--0--------------||
D |--X--------------|--X--------------|--X--------------|--X--------------||

  Sweet Sweet          Sweet Sweet Sunflower 
D |--9--------------|--7--------------|--5--------------|--0--------------||
A |--10-------------|--9--------------|--7--------------|--2--------------||
G |--9--------------|--7--------------|--5--------------|--0--------------||
D |--9--------------|--7--------------|--5--------------|--0--------------||
G |--9--------------|--7--------------|--5--------------|--0--------------||
D |--X--------------|--X--------------|--X--------------|--X--------------||

  Sweet Sweet          Sweet Sweet Sunflower 
D |--9--------------|--7--------------|--5--------------|--0--------------||
A |--10-------------|--9--------------|--7--------------|--2--------------||
G |--9--------------|--7--------------|--5--------------|--0--------------||
D |--9--------------|--7--------------|--5--------------|--0--------------||
G |--9--------------|--7--------------|--5--------------|--0--------------||
D |--X--------------|--X--------------|--X--------------|--X--------------||


  Sweet Sweet          Sweet Sweet Sunflower 
D |--9--------------|--7--------------|--5--------------|--0--------------||
A |--10-------------|--9--------------|--7--------------|--2--------------||
G |--9--------------|--7--------------|--5--------------|--0--------------||
D |--9--------------|--7--------------|--5--------------|--0--------------||
G |--9--------------|--7--------------|--5--------------|--0--------------||
D |--X--------------|--X--------------|--X--------------|--X--------------||

  and gave them to the night.
D |--2--------------|--0--------------|--0--------------||
A |--3--------------|--2--------------|--2--------------||
G |--2--------------|--0--------------|--0--------------||
D |--2--------------|--0--------------|--0--------------||
G |--2--------------|--0--------------|--0--------------||
D |--X--------------|--X--------------|--0--------------||
            
Submit corrections

comments powered by Disqus
↑ Back to top | Low Tabs for Sunflower. Lyrics for acoustic guitar and electric guitar. 1 Tablatures and chords are parodies/interpretations of the original songs. You may use it for private study, scholarship, research or language learning purposes only