array
(
    
'kindofgirl1' => 'kindofgirl1'
    'low' 
=> 'low'
)
Kind Of Girl Tabs (ver. 2) by Low @ AZ CHORDS.COM
» » »

Kind Of Girl Tabs (ver.2)

Artists:  A B C D E F G H I J K L M N O P Q R S T U V W X Y Z # 

Kind Of Girl Tabs (ver.2)

Low
Rating:
0/5 (0 votes)

Hard to play? Try these video lessons and learn fast.
                -------------------------------------------------------------------------------
                             KIND OF GIRL - Low
-------------------------------------------------------------------------------

I made this tab with reference to some of the other tabs I found which were in bizzare 
This one is in standard and to my ear sounds great played along with the song.

The only part which I'm not completely certain about is the chorus where I've tabbed the 
as 0-1-3 which is what I think sounds most like the track (and feels right when singing 
the top). It could just as easily be 0-2-4 or even 0-1-4 though.

Anyway enjoy the tab, it's my first.

Half your life you kept it in...
|-----------------------------------------------------|
|-----10-----8-----6-----5--------5-----------3-------|
|---------0-----0-----0-----0--------0-----------0----|
|---------------------------------------0-----------0-|
|-----8------7-----5-----4-----3-----------1----------|
|-----------------------------------------------------|

So on for remained of the verse.

Chorus:

No, you're not that kind of girl
|---------------------------------------------------------------------------------------------|
|-----2-----------2-----------2--------2--3--5----3-----------3-----------3-----------3-------|
|--------0-----------0-----------0-------------------0-----------0-----------0-----------0----|
|-----------0-----------0-----------0-------------------0-----------0-----------0-----------0-|
|--0-----------0-----------0-----------0--1--3--1----------1-----------1-----------1----------|
|---------------------------------------------------------------------------------------------|

No, you could have had the world
|---------------------------------------------------------------------------------------------|
|-----2-----------2-----------2--------2--3--5----3-----------3-----------5-----------5-------|
|--------0-----------0-----------0-------------------0-----------0-----------0-----------0----|
|-----------0-----------0-----------0-------------------0-----------0-----------0-----------0-|
|--0-----------0-----------0-----------0--1--3--1----------1-----------3-----------3----------|
|---------------------------------------------------------------------------------------------|

After 2nd chorus:

Now, lesser things
|-------------------------------------------------------------------------|
|-----5-----------5-----------6-----------5-----------3-----------3-------|
|--------0-----------0-----------0-----------0-----------0-----------0----|
|-----------0-----------0-----------0-----------0-----------0-----------0-|
|--4-----------4-----------5-----------3-----------1-----------1----------|
|-------------------------------------------------------------------------|

Pull the strings
|----------------------------------------------|
|--6-----------5-----------3-----------3-------|
|-----0-----------0-----------0-----------0----|
|--------0-----------0-----------0-----------0-|
|-----------3-----------1-----------1----------|
|----------------------------------------------|

Of priests and kings, no...
|----------------------------------------------|
|--6-----------5-----------3-----------3-------|
|-----0-----------0-----------0-----------0----|
|--------0-----------0-----------0-----------0-|
|-----------3-----------1-----------1----------|
|----------------------------------------------|

Back to chorus

The last chord I believe is

|----
|--3-
|--0-
|--0-
|----
|--3-
            
Hard to play? Try these video lessons and learn fast. | Correct




comments powered by Disqus
↑ Back to top | Tablatures and chords are parodies/interpretations of the original songs. You may use it for private study, scholarship, research or language learning purposes only