» » »

Especially Me Tabs (ver.1)

Artists:  A B C D E F G H I J K L M N O P Q R S T U V W X Y Z # 

Especially Me Tabs (ver.1)

Low
Rating:
0/5 (0 votes)

Hard to play? Try these video lessons and learn fast.
                -----------------------------------------------------------------------------
-----------------------------------------------------------------------------


Tuning: Standard

e|---------|
B|---------|
G|---------|            x       4
D|------7--|
A|----7----|
E|--5------|

e|---------|
B|---------|
G|---------|            x       4
D|------5--|
A|----5----|
E|--3------|

REPEAT x2, then:

e|---------|
B|---------|
G|---------|            x       8
D|------3--|
A|----3----|
E|--1------|


That's it!
            
Hard to play? Try these video lessons and learn fast. | Correct




comments powered by Disqus
↑ Back to top | Tablatures and chords are parodies/interpretations of the original songs. You may use it for private study, scholarship, research or language learning purposes only