» » »

Low, 2-Step Tabs (ver.1)

Artists:  A B C D E F G H I J K L M N O P Q R S T U V W X Y Z # 

2-Step Tabs (ver.1)

Low Tabs
Rating:
5/5 (1 vote)
2-Step lessons Tabs too difficult? Try these video lessons and learn fast
                LOW - 2-Step (Transcription Hanoihancock)
DGDGAD

  And the light it  burns your skin  in a language you don't understand
D |--2----2--------|--4------------|--2----2----------------|--4----------||
A |--2----2--------|--4------------|--2----2----------------|--4----------||
G |--4----4--------|--6------------|--4----4----------------|--6----------||
D |--2----2--------|--4------------|--2----2----------------|--4----------||
G |--2----4--------|--4------------|--2----4----------------|--4----------||
D |--X----2--------|--X------------|--X----2----------------|--X----------||

  It's not that hard.               It is not that hard 
D |--2----2--------|--4------------|--2----2----------------|--4----------||
A |--2----2--------|--4------------|--2----2----------------|--4----------||
G |--4----4--------|--6------------|--4----4----------------|--6----------||
D |--2----2--------|--4------------|--2----2----------------|--4----------||
G |--2----4--------|--4------------|--2----4----------------|--4----------||
D |--X----2--------|--X------------|--X----2----------------|--X----------||


  That's not all, voices small head them either way they call...
D |--6----2----------|--2----------------2--|--2-------------|--2--2--|--4||
A |--7----2----------|--2----------------2--|--2-------------|--2--2--|--4||
G |--6----4----------|--1----------------1--|--1-------------|--4--4--|--6||
D |--6----2----------|--2----------------2--|--2-------------|--2--2--|--4||
G |--6----2----------|--1----------------0--|--0-------------|--2--4--|--4||
D |--X----X----------|--X----------------X--|--X-------------|--X--2--|--X||

  (Intrumental)
D |--2----2----------------|--4--------------||
A |--2----2----------------|--4--------------||
G |--4----4----------------|--6--------------||
D |--2----2----------------|--4--------------||
G |--2----4----------------|--4--------------||
D |--X----2----------------|--X--------------||

   Two Step       around the room   kneal down               on white   
D |--2----2--------|--4------------|--2----2----------------|--4----------||
A |--2----2--------|--4------------|--2----2----------------|--4----------||
G |--4----4--------|--6------------|--4----4----------------|--6----------||
D |--2----2--------|--4------------|--2----2----------------|--4----------||
G |--2----4--------|--4------------|--2----4----------------|--4----------||
D |--X----2--------|--X------------|--X----2----------------|--X----------||

   Two Step       around the room   kneal down               on white   
D |--2----2--------|--4------------|--2----2----------------|--4----------||
A |--2----2--------|--4------------|--2----2----------------|--4----------||
G |--4----4--------|--6------------|--4----4----------------|--6----------||
D |--2----2--------|--4------------|--2----2----------------|--4----------||
G |--2----4--------|--4------------|--2----4----------------|--4----------||
D |--X----2--------|--X------------|--X----2----------------|--X----------||

(Harmony)
   Two Step       around the room   you can kneal down       on white   
D |--2----2--------|--4------------|--2----2----------------|--4----------||
A |--2----2--------|--4------------|--2----2----------------|--4----------||
G |--4----4--------|--6------------|--4----4----------------|--6----------||
D |--2----2--------|--4------------|--2----2----------------|--4----------||
G |--2----4--------|--4------------|--2----4----------------|--4----------||
D |--X----2--------|--X------------|--X----2----------------|--X----------||






   Two Step       around the room   you can kneal down       on white   
D |--2----2--------|--4------------|--2----2----------------|--4----------||
A |--2----2--------|--4------------|--2----2----------------|--4----------||
G |--4----4--------|--6------------|--4----4----------------|--6----------||
D |--2----2--------|--4------------|--2----2----------------|--4----------||
G |--2----4--------|--4------------|--2----4----------------|--4----------||
D |--X----2--------|--X------------|--X----2----------------|--X----------||





  That's not all, voices small head them either way they call...
D |--6----2----------|--2----------------2--|--2-------------|--2--2--|--4||
A |--7----2----------|--2----------------2--|--2-------------|--2--2--|--4||
G |--6----4----------|--1----------------1--|--1-------------|--4--4--|--6||
D |--6----2----------|--2----------------2--|--2-------------|--2--2--|--4||
G |--6----2----------|--1----------------0--|--0-------------|--2--4--|--4||
D |--X----X----------|--X----------------X--|--X-------------|--X--2--|--X||

  And the light it  burns your skin  in a language you don't understand
D |--2----2--------|--4------------|--2----2----------------|--4----------||
A |--2----2--------|--4------------|--2----2----------------|--4----------||
G |--4----4--------|--6------------|--4----4----------------|--6----------||
D |--2----2--------|--4------------|--2----2----------------|--4----------||
G |--2----4--------|--4------------|--2----4----------------|--4----------||
D |--X----2--------|--X------------|--X----2----------------|--X----------||
            

comments powered by Disqus
↑ Back to top | Low Tabs for 2-Step. Lyrics for acoustic guitar and electric guitar. Tablatures and chords are parodies/interpretations of the original songs. You may use it for private study, scholarship, research or language learning purposes only