>
 >
Do You Believe In Magic

Do You Believe In Magic Bass Tabs

Lovin Spoonful - Do You Believe In Magic chords, tabs, tablatures, lyrics

Guitar lessons | Add/correct | Request | Top 50 tabs Artists:  A B C D E F G H I J K L M N O P Q R S T U V W X Y Z 0-9

Do You Believe In Magic Bass Tabs – Lovin Spoonful

CD, Sheet music, Poster

Do you like Do You Believe In Magic? Share with your friends now
Bass TabsChordsTabsUkulele
The Lovin' Spoonful
Written by John Sebastian; released as a single with "On The Road Again" as 
the B-side, and on the album "Do You Believe In Magic"

Intro:
G|------ ------ ------ ------|------ ------ ------ ------|
D|---------------------------|---------------------------|
A|---------------------------|-------------------------4-|
E|---------------------------|---------------------------|



G|------ ------ ------ ------|------ ------ ------ ------|
D|-----------1--1----------2-|2----------1--1------------|
A|4--------------------------|---------------------------|
E|---------------------------|---------------------------|



G|------ ------ ------ ------|------ ------ ------ ------|
D|-----------1--1----------1-|2----------2---------------|
A|4------4-------------------|-------------------------1-|
E|---------------------------|--------------2------2-----|
                                  Do you believe in    ma-

Verse:
G|------ ------ ------ ------|------ ------ ------ ------|
D|-------------------------2-|2----------2--2------------|
A|2-------------2------------|---------------------------|
E|-----------2---------------|-------------------------2-|
      gic              in  a  young  heart,          how the
                                  girl's

G|------ ------ ------ ------|------ ------ ------ ------|
D|-------------------------2-|2-------------2------2-----|
A|2-------------2------------|-----------2-------------1-|
E|-----------2---------------|---------------------------|
  music  can free   her,   whenever  it  starts? And it's ma-


G|------ ------ ------ ------|------ ------ ------ ------|
D|-------------------------1-|2-------------2------------|
A|2-------------2------------|-----------2---------------|
E|-----------2---------------|-------------------------2-|
      gic,             if the music  is  groo - vy,    it


G|------ ------ ------ ------|------ ------ ------ ------|
D|-------------------------1-|2------2------2------2-----|
A|2-------------2------------|-----------2-------------2-|
E|-----------2---------------|---------------------------|
  makes  feel   happy like an old time   mo  -  vie.   I'll
      you

G|------ ------ ------ ------|------ ------ ------ ------|
D|--------------1------1-----|2------2------1------1-----|
A|4------4-------------------|---------------------------|
E|---------------------------|---------------------------|
  tell  'bout   magic, and    free your  soul, But it's like
      you    the           I'll
  aaaaaaaaaaaaaaaaaaaaaaaaaaaaaaaaaaaaaaaaaaaaaaaaaaaaaaa
G|------ ------ ------ ------|------ ------ ------ ------|
D|---------------------------|---------------------------|
A|---------------------------|---------------------------|
E|2------2------2------2-----|2------2------2------2-----|
  tryin' tell a stranger          Rock and Roll.
      to               'bout a
  aaaaaaaaaaaaaaaaaaaaaaaaaaa
G|------ ------ ------ ------|
D|---------------------------|
A|---------------------------|
E|2---2--2---2--2---2--2---2-|
      If you believe in    ma-

Verse:
G|------ ------ ------ ------|------ ------ ------ ------|
D|---------------------------|2-------------2---2--2-----|
A|2-------------2------2---2-|-----------2-------------1-|
E|-----------2---------------|---------------------------|
      gic,             don't  bother and choose if it's
  ooooooooooooooooooooooooooooooooooooooooooooooooooooooo

G|------ ------ ------ ------|------ ------ ------ ------|
D|---------------------------|2----------2--2------2-----|
A|2----------2--2------2-----|---------------------------|
E|---------------------------|---------------------------|
  jug    band   music,     or Rhythm and Blues, Just
  ooooooooooooooooooooooooooooooooooooooooooooooooooooooo

G|------ ------ ------ ------|------ ------ ------ ------|
D|---------------------------|--------------2------2-----|
A|2----------2--2------2---2-|-----------2-------------1-|
E|---------------------------|0--------------------------|
  go and listen,       it'll  start  a   smile, it won't
                                  with
  ooooooooooooooooooooooooooooooooooooooooooooooooooooooo
G|------ ------ ------ ------|------ ------ ------ ------|
D|---------------------------|2-------------2------------|
A|2-------------2------2-----|-----------2-------------4-|
E|-----------2---------------|---------------------------|
  wipe off your face, no matter how hard you try.      Your
  oooooooooooooooooooooooooooooooooooooooooooooooo

G|------ ------ ------ ------|------ ------ ------ ------|
D|-----------1--1------1---2-|2------2---1--1------1-----|
A|4------4-------------------|---------------------------|
E|---------------------------|---------------------------|
  feet   start  tap-   and    can't  to  find      how you
                    pin',  you    seem
  aaaaaaaaaaaaaaaaaaaaaaaaaaaaaaaaaaaaaaaaaaaaaaaaaaaaaaa
G|------ ------ ------ ------|------ ------ ------ ------|
D|---------------------------|---------------------------|
A|---------------------------|---------------------------|
E|2------2------2------2-----|2------2------2------2-----|
  got    there,     so   just   blow your mind.
  aaaaaaaaaaaaaaaaaaaaaaaaaaa
Bridge (solo):
G|------ ------ ------ ------|------ ------ ------ ------|
D|2----------2--2------------|2-------------2------2-----|
A|-------------------------2-|-----------2-------------2-|
E|---------------------------|---------------------------|



G|------ ------ ------ ------|------ ------ ------ ------|
D|---------------------------|---------------------------|
A|2-------------2------------|2------2------2------2---2-|
E|-----------2-------------2-|-----------2---------------|



G|------ ------ ------ ------|------ ------ ------ ------|
D|2----------1--1------------|2------2------1------1-----|
A|-------------------------2-|---------------------------|
E|---------------------------|---------------------------|



G|------ ------ ------ ------|------ ------ ------ ------|
D|---------------------------|---------------------------|
A|---------------------------|---------------------------|
E|2------2------2------2-----|2------2------2------2-----|
                                  If you believe in    ma-

Verse:
G|------ ------ ------ ------|------ ------ ------ ------|
D|---------------------------|2------2------2------2-----|
A|2----------2--2------2---2-|-----------2---------------|
E|---------------------------|-------------------------2-|
      gic,             come along    with me,          we'll
  ooooooooooooooooooooooooooooooooooooooooooooooooooooooo

G|------ ------ ------ ------|------ ------ ------ ------|
D|---------------------------|2------2---2--2------2-----|
A|2------2------2------2---2-|---------------------------|
E|-----------2---------------|-------------------------2-|
  dance until   morning till  just you and me,  And    may-
                           there's
  ooooooooooooooooooooooooooooooooooooooooooooooooooooooo
G|------ ------ ------ ------|------ ------ ------ ------|
D|---------------------------|2------2------2---2--2-----|
A|2------2------2------2---2-|-----------2---------------|
E|-----------2---------------|-------------------------2-|
      be,              if the music  is  right,        I'll
  ooooooooooooooooooooooooooooooooooooooooooooooooooooooo

G|------ ------ ------ ------|------ ------ ------ ------|
D|---------------------------|2-------------2------2---2-|
A|2-------------2----------2-|-----------2---------------|
E|-----------2---------------|---------------------------|
  meet you   tomorrow  so  late     at  night,        And
  oooooooooooooooooooooooooooooooooooooooooooooooo

G|------ ------ ------ ------|------ ------ ------ ------|
D|-----------1--1------1---2-|2------2---1--1------1-----|
A|4------4-------------------|---------------------------|
E|---------------------------|---------------------------|
  we'll  go     dancing, baby, then      see,        all the
                                  you'll
  aaaaaaaaaaaaaaaaaaaaaaaaaaaaaaaaaaaaaaaaaaaaaaaaaaaaaaa
G|------ ------ ------ ------|------ ------ ------ ------|
D|---------------------------|---------------------------|
A|---------------------------|---------------------------|
E|2------2------2------2-----|2------2------2------2-----|
  magic's in the music, and the music's in  me,        yeah!
  aaaaaaaaaaaaaaaaaaaaaaaaaaaaaaaaaaa
Outro:
G|------ ------ ------ ------|------ ------ ------ ------|
D|2-------------2------------|2-------------2------------|
A|-----------2-------------2-|-----------2---------------|
E|---------------------------|-------------------------2-|
                                  Do you believe in    ma-


G|------ ------ ------ ------|------ ------ ------ ------|
D|---------------------------|---------------------------|
A|2------2------2------2-----|2------2------2------2---2-|
E|-----------2-------------2-|-----------2---------------|
      gic?                               Yeah,         be-


G|------ ------ ------ ------|------ ------ ------ ------|
D|2------2---1--1----------2-|2------2------1----------1-|
A|---------------------------|-----------2---------------|
E|---------------------------|---------------------------|
  lieve  in the magic  of  a  young      soul,         Be-
                                  girl's
  aaaaaaaaaaaaaaaaaaaaaaaaaaaaaaaaaaaaaaaaaaaaaaaaa
G|------ ------ ------ ------|------ ------ ------ ------|
D|2------2------1----------1-|2------2------1------1---1-|
A|-----------2---------------|-----------2---------------|
E|---------------------------|---------------------------|
  lieve  in the magic  of  a  Rock and   Roll,         Be-
  aaaaaaaaaaaaaaaaaaaaaaaaaaaaaaaaaaaaaaaaaaaaaaaaa

G|------ ------ ------ ------|------ ------ ------ ------|
D|2------2------1------1---1-|2------2------1------1-----|
A|-----------2---------------|-----------2---------------|
E|---------------------------|---------------------------|
  lieve  in the magic, it can     set    you    free,
  aaaaaaaaaaaaaaaaaaaaaaaaaaaaaaaaaaaaaaaaaaaaaaaaaaaaaaa

G|------ ------ ------ ------|------ ------ ------ ------|
D|---------------------------|---------------------------|
A|---------------------------|---------------------------|
E|2------2------2------2-----|2------2------2---2--2-----|
         oh,                                Talkin' 'bout the
  aaaaaaaaaaaaaaaaaaaaaaaaaaa                         (Do

G|------ ------ ------ ------|------ ------ ------ ------|
D|2-------------2------------|2-------------2------------|
A|-----------2-------------2-|-----------2---------------|
E|---------------------------|-------------------------2-|
  ma  -  gic,                     Do you believe   in  ma-
  you        believe     like I          believe?      Do

G|------ ------ ------ ------|------ ------ ------ ------|
D|---------------------------|---------------------------|
A|2------2------2------------|2------2------2------2---2-|
E|-----------2-------------2-|-----------2---------------|
      gic?                        Do you believe,  believe
  you        believe     like I          believe?      Do

G|------ ------ ------ ------|------ ------ ------ ------|
D|2------2------2------2-----|2------2------2------------|
A|-----------2-------------2-|-----------2---------------|
E|---------------------------|-------------------------2-|
      it?                         Do you believe   in  ma-
  you        believe     like I          believe?      Do

G|------ ------ ------ ------|------ ------ ------ ------|
D|---------------------------|---------------------------|
A|2-------------2------------|2------2------2------2---2-|
E|-----------2-------------2-|-----------2---------------|
      gic?                        Do you believe   in...
  you        believe     like I          believe?      Do...
fade out...

Please e-mail me for any corrections, or write a comment.





Comments


Popular Lovin Spoonful tabs & chords
Summer In The City Bass Tabs
Money Chords
Rain On The Roof 1 Chords
You Didnt Have To Be So Nice Chords
Darlin Be Home Soon Tabs
You Didnt Have To Tabs
Shes Still A Mystery To Me Ukulele
Six O Clock Ukulele
What A Day For A Daydream Ukulele
Younger Girl Ukulele


Song lyrics



↑ Back to top | Tablatures and chords are parodies/interpretations of the original songs. You may use it for private study, scholarship, research or language learning purposes only
© 2014 AZChords.com Contact us | Privacy policy | DMCA | Add/correct tabs | Request tabs | Top 50 tabs