» » »

Did You Ever Have To Make Up Your Mind Bass tabs (ver.1)

Artists:  A B C D E F G H I J K L M N O P Q R S T U V W X Y Z # 

Did You Ever Have To Make Up Your Mind Bass tabs (ver.1)

Lovin Spoonful
Rating:
0/5 (0 votes)

Hard to play? Try these video lessons and learn fast.
                Did You Ever Have To Make Up Your Mind?
The Lovin' Spoonful
Written by John Sebastian; released as a single with "Didn't Want To Have To 
Do It" as the B-side, and on the album "Do You Believe in Magic"

Intro:
G|------- ------- ------- -------|------- ------- ------- -------|
D|-------------------------------|5---2--------------------------|
A|-------------------------------|--------5---2------------------|
E|-------------------------------|----------------3--------------|
                                                          Did you

Verse:
G|------- 4------ 4---7-- ----7--|------- 4------ ------- -------|
D|5-----------5------------------|5-----------5---7--------------|
A|-------------------------------|--------------------5-------5--|
E|-------------------------------|-------------------------------|
  e - ver have to make up your mind,


G|------- 4------ 4---7-- ----7--|------- 4------ ------- -------|
D|5-----------5------------------|5-----------5---7--------------|
A|-------------------------------|--------------------7-------7--|
E|-------------------------------|-------------------------------|
  pick up a   one,    and leave the other be- hind?           It's


G|------- 4------ 4---7-- ----4--|------- ------- ------- -------|
D|5-----------5------------------|--------2-------2---5-------2--|
A|-------------------------------|3-----------3------------------|
E|-------------------------------|-------------------------------|
  not of- ten ea  -   sy,     and not of- ten kind,       did you


G|------- ------- ------- -------|------- 4------ ------- -------|
D|--------4-------4---7-------4--|5---------------5--------------|
A|5-----------5------------------|------------5---------------5--|
E|-------------------------------|-------------------------------|
  e - ver have to make up your mind?                      Did you

Verse:
G|------- 4------ 4---7-- ----7--|------- 4------ ------- -------|
D|5-----------5------------------|5-----------5---7--------------|
A|-------------------------------|--------------------5-------5--|
E|-------------------------------|-------------------------------|
  e - ver have to finally de- cide,


G|------- 4------ 4---7-- ----7--|------- 4------ ------- -------|
D|5-----------5------------------|5-----------5---7--------------|
A|-------------------------------|--------------------7-------7--|
E|-------------------------------|-------------------------------|
  say yes to  one,    and let the other one   cry?            There's


G|------- 4------ 4---7-- ----4--|------- ------- ------- -------|
D|5-----------5------------------|--------2-------2---5-------2--|
A|-------------------------------|3-----------3------------------|
E|-------------------------------|-------------------------------|
  so  ma- ny  chan -  ges,    and tears you must hide,    did you


G|------- ------- ------- -------|------- 4------ ------- -------|
D|--------4-------4---7-------4--|5---------------5--------------|
A|5-----------5------------------|------------5------------------|
E|-------------------------------|-------------------------------|
  e - ver have to finally de- cide?                   Sometimes there's

Bridge:
G|------- ------- ------- -------|------- ------- ------- -------|
D|-------------------------------|-------------------------------|
A|7-------7---7---7---7---7---7--|7---7---7---7---7---7---7---7--|
E|-------------------------------|-------------------------------|
  one with big blue eyes,         cute as a   bun  -  ny,     with


G|------- ------- ------- -------|------- ------- ------- -------|
D|7---7---7----------------------|7---7---7----------------------|
A|----------------7-------7---7--|----------------7-------7---7--|
E|-------------------------------|-------------------------------|
  hair down to here,          and plenty  of  mo  -   ney,    And


G|------- ------- ------- -------|------- ------- ------- -------|
D|--------10--10--7-------7------|-------------------------------|
A|-------------------------------|10------8---7-------7---7---7--|
E|8------------------------------|-------------------------------|
  just when you think     she's   one in  the world,          your
                              that

G|------- ------- ------- -------|------- ------- ------- -------|
D|-------------------------------|-------------------------------|
A|5------------------------------|----5---------------5----------|
E|-------------------------------|-------------------------------|
  heart   gets    stolen  by some mousy   little  girl. And when you

Verse:
G|------- 4------ 4---7-- ----7--|------- 4------ ------- -------|
D|5-----------5------------------|5-----------5---7--------------|
A|-------------------------------|--------------------5-------5--|
E|-------------------------------|-------------------------------|
  know    better  make up your mind,
      you'd

G|------- 4------ 4---7-- ----7--|------- 4------ ------- -------|
D|5-----------5------------------|5-----------5---7--------------|
A|-------------------------------|--------------------7-------7--|
E|-------------------------------|-------------------------------|
  pick up a   one,    and leave the other be- hind,           It's


G|------- 4------ 4---7-- ----4--|------- ------- ------- -------|
D|5-----------5------------------|--------2-------2---5-------2--|
A|-------------------------------|3-----------3------------------|
E|-------------------------------|-------------------------------|
  not of- ten ea  -   sy,     and not of- ten kind,       did you


G|------- ------- ------- -------|------- 4------ ------- -------|
D|--------4-------4---7-------4--|5---------------5--------------|
A|5-----------5------------------|------------5---------------5--|
E|-------------------------------|-------------------------------|
  e - ver have to make up your mind?

Verse (solo):
G|------- 4------ 4---7-- ----7--|------- 4------ ------- -------|
D|5-----------5------------------|5-----------5---7--------------|
A|-------------------------------|--------------------5-------5--|
E|-------------------------------|-------------------------------|



G|------- 4------ 4---7-- ----7--|------- 4------ ------- -------|
D|5-----------5------------------|5-----------5---7--------------|
A|-------------------------------|--------------------7-------7--|
E|-------------------------------|-------------------------------|



G|------- 4------ 4---7-- ----4--|------- ------- ------- -------|
D|5-----------5------------------|--------2-------2---5-------2--|
A|-------------------------------|3-----------3------------------|
E|-------------------------------|-------------------------------|



G|------- ------- ------- -------|------- 4------ ------- -------|
D|--------4-------4---7-------4--|5---------------5--------------|
A|5-----------5------------------|------------5------------------|
E|-------------------------------|-------------------------------|
                                                      Sometimes you

Bridge:
G|------- ------- ------- -------|------- ------- ------- -------|
D|-------------------------------|-------------------------------|
A|7-------7---7---7-------7---7--|7-------7---7---7-------7---7--|
E|-------------------------------|-------------------------------|
  really  dig a   girl        the moment  you kissed  her,    and


G|------- ------- ------- -------|------- ------- ------- -------|
D|7-------7----------------------|7-------7----------------------|
A|----------------7-------7---7--|----------------7-------7---7--|
E|-------------------------------|-------------------------------|
  then you get distracted     by  her older   sis  -  ter.    When


G|------- ------- ------- -------|------- ------- ------- -------|
D|----------------7-------7------|-------------------------------|
A|-------------------------------|10--9---8---7-------7---7---7--|
E|8-------8----------------------|-------------------------------|
  in walks her fa  -  ther,   and takes   in  line,   and says:
                                      you

G|------- ------- ------- -------|------- ------- ------- -------|
D|-------------------------------|-------------------------------|
A|5------------------------------|----5---------------5----------|
E|-------------------------------|-------------------------------|
 "Better  go      home,   son, and make up your   mind!"  Did you

Verse:
G|------- 4------ 4---7-- ----7--|------- 4------ ------- -------|
D|5-----------5------------------|5-----------5---7--------------|
A|-------------------------------|--------------------5-------5--|
E|-------------------------------|-------------------------------|
  e - ver have to finally de- cide,                           and


G|------- 4------ 4---7-- ----7--|------- 4------ ------- -------|
D|5-----------5------------------|5-----------5---7--------------|
A|-------------------------------|--------------------7-------7--|
E|-------------------------------|-------------------------------|
  say yes to  one,    and let the other one   cry?            There's


G|------- 4------ 4---7-- ----4--|------- ------- ------- -------|
D|5-----------5------------------|--------2-------2---5-------2--|
A|-------------------------------|3-----------3------------------|
E|-------------------------------|-------------------------------|
  so  ma- ny  chan -  ges,    and tears you must hide,    did you


G|------- ------- ------- -------|------- 4------ ------- -------|
D|--------4-------4---7----------|5---------------5--------------|
A|5-----------5---------------5--|------------5------------------|
E|-------------------------------|-------------------------------|
  e - ver have to finally de- cide?

Please e-mail me for any corrections, or write a comment.
            
Hard to play? Try these video lessons and learn fast. | Correct




comments powered by Disqus
↑ Back to top | Tablatures and chords are parodies/interpretations of the original songs. You may use it for private study, scholarship, research or language learning purposes only