>
 >
Daydream

Daydream Guitar Tabs

Lovin Spoonful - Daydream chords, tabs, tablatures, lyrics

Guitar lessons | Add/correct | Request | Top 50 tabs Artists:  A B C D E F G H I J K L M N O P Q R S T U V W X Y Z 0-9

Daydream Guitar Tabs – Lovin Spoonful

CD, Sheet music, Poster

Do you like Daydream? Share with your friends now
Bass TabsChordsChords v2Chords v3TabsUkulele
----------------------------------------------------------------------------
                     Daydream - The Lovin' Spoonful
----------------------------------------------------------------------------



Tuning: Standard (Tuned Up Slightly)



Intro:
    C
e|--------0--------0-|-------0--------0--|
B|--------1--------1-|-------1--------1--|
G|--------0--------0-|-------0--------0--|
D|----2---2----2---2-|---2---2----2---2--|
A|----3--------3-----|---3--------3------|
E|--3--------3-------|-3--------3--------|


Verse:

  Guitar 1 (Electric)
   C                 A7                 Dm7               G7
e|-------0--------0-|------0---------0-|------1--------1-|------1--------1-|
B|-------1--------1-|------2---------2-|------1--------1-|------0--------0-|
G|-------0--------0-|------0---------0-|--2---2----2---2-|------0--------0-|
D|---2---2----2---2-|--2---2-----2---2-|--0---0----0---0-|------0--------0-|
A|---3--------3-----|--0---------0-----|0--------0-------|--2--------2-----|
E|-3--------3-------|0---------0-------|-----------------|3--------3-------|
 |Guitar 2 (Acoustic)
e|------------------|------------------|-----------------|-----------------|
B|------------------|------------------|-----------------|-----------------|
G|------------------|------------------|-----------------|-----------------|
D|------------------|------------------|-----------------|-----------------|
A|------------------|------------------|-----------------|-------------0-2-|
E|------------------|------------------|-----------------|-----------3-----|


   C                 A7                 Dm7               G7
e|-------0--------0-|------0---------0-|------1--------1-|------1--------1-|
B|-------1--------1-|------2---------2-|------1--------1-|------0--------0-|
G|-------0--------0-|------0---------0-|--2---2----2---2-|------0--------0-|
D|---2---2----2---2-|--2---2-----2---2-|--0---0----0---0-|------0--------0-|
A|---3--------3-----|--0---------0-----|0--------0-------|--2--------2-----|
E|-3--------3-------|0---------0-------|-----------------|3--------3-------|
 |
e|-------0--------0-|------0---------0-|------1--------1-|------1--------1-|
B|-------1--------1-|------2---------2-|------1--------1-|------0--------0-|
G|-------0--------0-|--0---0-----0---0-|--2---2----2---2-|------0--------0-|
D|---2---2----2---2-|--2---2-----2---2-|--0---0----0---0-|--0---0----0---0-|
A|---3---3----3---3-|--0---0-----0---0-|--0--------0-----|--2---2----2---2-|
E|---3--------3-----|------------------|-----------------|--3---3----3---3-|


Chorus:
  
  Guitar 1 (Electric)
   F        D7       C        A7       F        D7       C         A7
e|-------1----------|------0--------0-|------1----------|------0---------0-|
B|-------1--------1-|------1--------2-|------1--------1-|------1---------2-|
G|-------2--------2-|------0--------0-|------2--------2-|------0---------0-|
D|-------3----0---0-|------2--------2-|------3----0---0-|------2---------2-|
A|---3--------------|--3--------0-----|--3--------------|--3---------0-----|
E|-1--------2-------|3--------0-------|1--------2-------|3---------0-------|
 |Guitar 2 (Acoustic)
e|-------1----------|------0--------0-|------1----------|------0---------0-|
B|-------1--------1-|------1--------2-|------1--------1-|------1---------2-|
G|-------2--------2-|------0----0---0-|------2--------2-|------0-----0---0-|
D|---3---3----0---0-|--2---2----2---2-|--3---3----0---0-|--2---2-----2---2-|
A|---3---3----x---x-|--3---3----0---0-|--3---3----x---x-|--3---3-----0---0-|
E|---1---1----2---2-|--3---3----------|--1---1----2---2-|--3---3-----------|
 |Guitar 3 (Electric)
e|------------------|-----------------|-----------------|------------------|
B|----------------1-|-----1--------2--|---------------1-|-----1---------2--|
G|-------2------2---|----0--------0---|------2------2---|----0---------0---|
D|-----3------0-----|---2--------2----|----3------0-----|---2---------2----|
A|---3--------------|--3--------0-----|--3--------------|--3---------0-----|
E|------------------|-----------------|-----------------|------------------|


   F        D7       C        A7       G        C        G7        C
e|-------1----------|------0--------0-|------3--------3-|------3---------3-|
B|-------1--------1-|------1--------2-|------0--------1-|------0---------1-|
G|-------2--------2-|------0--------0-|------0--------0-|------0---------0-|
D|-------3----0---0-|------2--------2-|--0---0----2---2-|--3---3-----2---2-|
A|---3--------------|--3--------0-----|-----------------|------------------|
E|-1--------2-------|3--------0-------|3--------3-------|3---------3-------|
 |
e|-------1----------|------0--------0-|------3--------3-|------3-----------|
B|-------1--------1-|------1--------2-|------0--------1-|------0-----------|
G|-------2--------2-|------0----0---0-|------0--------0-|------0-----------|
D|---3---3----0---0-|--2---2----2---2-|--0---0----2---2-|--3---3----2------|
A|---3---3----x---x-|--3---3----0---0-|--x---x----x---x-|--x---x----x---0-2|
E|---1---1----2---2-|--3---3----------|--3---3----3---3-|--3---3----3-3----|
 |
e|------------------|-----------------|-----------------|------------------|
B|----------------1-|-----1--------2--|-----------------|------------------|
G|-------2------2---|----0--------0---|-----------------|------------------|
D|-----3------0-----|---2--------2----|-----------------|------------------|
A|---3--------------|--3--------0-----|-----------------|------------------|
E|------------------|-----------------|-----------------|------------------|


Repeat Verse
Repeat Chorus
Repeat Verse
Repeat Chorus
Repeat Verse
Repeat Chorus


| /  slide up
| \  slide down
| h  hammer-on
| p  pull-off
| ~  vibrato
| +  harmonic
| x  Mute note
===========================================================================





Comments


Popular Lovin Spoonful tabs & chords
Darlin Be Home Soon Chords
Didn't Want To Have To Do It Chords
Money Chords
Nashville Cats 2 Chords
Rain On The Roof 1 Chords
Summer In The City 1 Chords
Younger Girl Chords
Did You Ever Have To Tabs
Younger Girl Tabs
My Gal Ukulele


Song lyrics



↑ Back to top | Tablatures and chords are parodies/interpretations of the original songs. You may use it for private study, scholarship, research or language learning purposes only
© 2014 AZChords.com Contact us | Privacy policy | DMCA | Add/correct tabs | Request tabs | Top 50 tabs