» » »

Love Lies In Ashes, A Beautiful Death Tabs (ver.1)

Artists:  A B C D E F G H I J K L M N O P Q R S T U V W X Y Z # 

A Beautiful Death Tabs (ver.1)

Love Lies In Ashes Tabs
Rating:
0/5 (0 votes)
A Beautiful Death lessons Tabs too difficult? Try these video lessons and learn fast
                Artist = Love Lies in Ashes
Song = 
Album = A Beautiful Death
Track # 
\m/(>.<)\m/
KEY
 ~ = Bend
 h = Hammer on
 p = Pull off
 / = Slide
 * = Palm mute
 > = Pinch
In Drop D tuning
----------------------------------------------------------------------------

Intro
|----------------------------------------------------------------|
|----------------------------------------------------------------|
|----------------------------------------------------------------|
|----------------------------------------------------------------|
|---5-3h5--6--5--1h3--5-3h5--6--5--8~--5-3h5--6--5--1h3--5-3-1h3/|
|-00-0---00-00-00---00-0---00-00-00--00-0---00-00-00---00-0-0----|
  ** *   ** ** **   ** *   ** ** **  ** *   ** ** **   ** * *

Verse 2X
 The Roses Fall.....
|--------------------------------------------------------------------|
|--------------------------------------------------------------------|
|------------------------------------555444--------------------------|
|------------------------------------7775553-33-3-33-0002225-55-5-55-|
|---5-3h5--6--5--1h3--5-3h5--6--5--8-------3-33-3-33-0002225-55-5-55-|
|-00-0---00-00-00---00-0---00-00-00--------3-33-3-33-0002225-55-5-55-|
  ** *   ** ** **   ** *   ** ** **

Lil Break down
  Couldnt they take.....
|----------------------------------------------|
|----------------------------------------------|
|----------------------------------------------|
|-00000-00000-00000-00000-3333333355566666666--|
|-00000-00000-00000-00000-3333333333333333333--|
|-00000-00000-00000-00000-3333333333333333333--|
  ***** ***** ***** *****
 My only Friend.......
|---------------------------------------------|
|---------------------------------------------|
|------------------------------------------3--|
|-00000-00000-00000-00000-6666666655555555-3--|
|-00000-00000-00000-00000-3333333333366666-1--|
|-00000-00000-00000-00000-3333333333333333----|
  ***** ***** ***** ***** 

Verse Two  2X
 Inside I was.........
|----------------------------------------------------------------|
|----------------------------------------------------------------|
|--------------------------------------101010999-9--9-9--9--9-9--|
|--------------------------------------0-0-0-000-10-1010-10-1010-|
|---5-3h5--8--7--10p8--5-3h5--8--7--10-0-0-0-000-0--0-0--0--0-0--|
|-00-0---00-00-00----00-0---00-00-00---0-0-0-000-0--0-0--0--0-0--|

|------------------|
|------------------|
|-5557778877777777-|
|-5555555555555555-|
|-5555555555555555-|
|-5555555555555555-|

Lil Break down
  Couldnt they take.....
|----------------------------------------------|
|----------------------------------------------|
|----------------------------------------------|
|-00000-00000-00000-00000-3333333355566666666--|
|-00000-00000-00000-00000-3333333333333333333--|
|-00000-00000-00000-00000-3333333333333333333--|
  ***** ***** ***** *****
 My only Friend.......
|---------------------------------------------|
|---------------------------------------------|
|------------------------------------------3--|
|-00000-00000-00000-00000-6666666655555555-3--|
|-00000-00000-00000-00000-3333333333366666-1--|
|-00000-00000-00000-00000-3333333333333333----|
  ***** ***** ***** ***** 

BREAK DOWN 2X
|-----------------------------------------------|
|-----------------------------------------------|
|-----------------------------------------------|
|-0-0-00-0000-0-0-00-0000-0-0-00-0000-0-0-03658-|
|-0-0-00-0000-0-0-00-0000-0-0-00-0000-0-0-03658-|
|-0-0-00-0000-0-0-00-0000-0-0-00-0000-0-0-03658-|
  * * ** **** * * ** **** * * ** **** * * *****
|----------------------------------------------------| |---|
|----------------------------------------------------| |---|
|----------------------------------------------------| |---|Hit this on end 
|-0-0-00-0000-0-0-00-0000-0-0-00-0000---0000----0000-| |-0-| of second
|-0-0-00-0000-0-0-00-0000-0-0-00-0000-8>0000-7>-0000-| |-0-|  Time Through
|-0-0-00-0000-0-0-00-0000-0-0-00-0000---0000----0000-| |-0-|
  * * ** **** * * ** **** * * ** ****   ****    ****

 Pre Verse
|----------------------------------------------------------------|
|----------------------------------------------------------------|
|----------------------------------------------------------------|
|----------------------------------------------------------------|
|---5-3h5--6--5--1h3--5-3h5--6--5--8~--5-3h5--6--5--1h3--5-3-1h3/|
|-00-0---00-00-00---00-0---00-00-00--00-0---00-00-00---00-0-0----|
  ** *   ** ** **   ** *   ** ** **  ** *   ** ** **   ** * *

Verse 2X
 I Couldnt Save Him.....
|--------------------------------------------------------------------|
|--------------------------------------------------------------------|
|------------------------------------555444--------------------------|
|------------------------------------7775553-33-3-33-0002225-55-5-55-|
|---5-3h5--6--5--1h3--5-3h5--6--5--8-------3-33-3-33-0002225-55-5-55-|
|-00-0---00-00-00---00-0---00-00-00--------3-33-3-33-0002225-55-5-55-|
  ** *   ** ** **   ** *   ** ** **

Lil Break down
  Couldnt they take.....
|----------------------------------------------|
|----------------------------------------------|
|----------------------------------------------|
|-00000-00000-00000-00000-3333333355566666666--|
|-00000-00000-00000-00000-3333333333333333333--|
|-00000-00000-00000-00000-3333333333333333333--|
  ***** ***** ***** *****
 My only Friend.......
|---------------------------------------------|
|---------------------------------------------|
|------------------------------------------3--|
|-00000-00000-00000-00000-6666666655555555-3--|
|-00000-00000-00000-00000-3333333333366666-1--|
|-00000-00000-00000-00000-3333333333333333----|
  ***** ***** ***** ***** 

----------------------------------------------------------------------------
I had the rest of the song finished but it got deleted when I clicked on it.
So that p**sed me the F$@K off and Im only putting up to this point

Check out Love Lies in Ashes @ 

 or 
            
Submit corrections

comments powered by Disqus
↑ Back to top | Love Lies In Ashes Tabs for A Beautiful Death. Lyrics for acoustic guitar and electric guitar. Tablatures and chords are parodies/interpretations of the original songs. You may use it for private study, scholarship, research or language learning purposes only