» » »

Love Is All, Felt Tip Bass tabs (ver.1)

Artists:  A B C D E F G H I J K L M N O P Q R S T U V W X Y Z # 

Felt Tip Bass tabs (ver.1)

Love Is All Tabs
 Rating:
4.2/5 (5 votes)
Felt Tip lessons Tabs too difficult? Try these video lessons and learn fast
                -------------------------------------------------------------------------------
-------------------------------------------------------------------------------


Tuning: Standard (EADG)

Nice bass-line that's really easy to play, too.

Rhythm carries on between the 'proper' notes, just keep your hand moving and mute the 
as shown.

G|-------------------------------------------------------------------------|
D|-----------5-5-----------------------------------------------------------|
A|-------5-5-----5-5-7-7-x-x---------2-2-x-x-x-2-x-2-3-x-x-x-3-5-----------|
E|---3-3---------------------0-2-3-5---------------------------------------|

Most of the song is just that repeated over and over - when it changes (2:40 or 
play this once:

G|-------------------------------------------------------------------------|
D|-----------5-5-----------------------------------------------------------|
A|-------5-5-----5-5-7-7-x-x---------2-2-x-x-x-2-x-2-3-3-5-5-7-7-9-9-------|
E|---3-3---------------------0-2-3-5---------------------------------------|

and then

G|------12---------12--------9-------9-------7-------7---------5------5----|
D|-------------------------------------------------------------------------|
A|-10-10--10-10-10----10\7-7---7-7-7---7\5-5---5-5-5---5\3-3-3--3-3-3---3--|
E|-------------------------------------------------------------------------|

repeat this until the very end (I'm not quite sure if it's played with the slides or 
but they sound good to me). It finishes with a modified version of the first riff:

G|-------------------------------------------------------------------------|
D|-----------5-5-----------------------------------------------------------|
A|-------5-5-----5-5-7-7-x-x---------2-0--3--------------------------------|
E|---3-3---------------------0-2-3-5---------------------------------------|

The tempo gets slower at the end of this, let the last note ring out.

| /  slide up
| \  slide down
| h  hammer-on
| p  pull-off
| ~  vibrato
| +  harmonic
| x  Mute note
===============================================================================
            
Submit corrections

comments powered by Disqus
↑ Back to top | Love Is All Bass for Felt Tip. Lyrics for acoustic guitar and electric guitar. Tablatures and chords are parodies/interpretations of the original songs. You may use it for private study, scholarship, research or language learning purposes only