» » »

Love Equals Death, Pray For Me Tabs (ver.1)

Artists:  A B C D E F G H I J K L M N O P Q R S T U V W X Y Z # 

Pray For Me Tabs (ver.1)

Love Equals Death Tabs
 Rating:
4/5 (7 votes)
Pray For Me lessons Tabs too difficult? Try these video lessons and learn fast
                INTRO

E|--------------------------------------------------------------------------|
B|--------------------------------------------------------------------------|
G|---------------------------------------------------4----------------------|
D|----5-5-5-5-5-5-5-5-5-5-5-5-5-5-5-3----2-2-2-2-2-0-4-0---7-7-7-7-7-7-7-7--|
A|----3-3-3-3-3-3-3-3-3-3-3-3-3-3-3-3----2-2-2-2-2-0-2-0---5-5-5-5-5-5-5-5--|
E|---------------------------------------0-0-0-0-0-0---0--------------------| (X3)
      x x   x x x   x x x   x x x   x    x x x x x         x x   x x x   x

E|-----------------------------------------------------------------------|
B|-----------------------------------------------------------------------|
G|---------------------------------------------------4-----7--7-7--7-7-7-|
D|----5-5-5-5-5-5-5-5-5-5-5-5-5-5-5-5----2-2-2-2-2-0-4-0---7--7-7--7-7-7-|
A|----3-3-3-3-3-3-3-3-3-3-3-3-3-3-3-3----2-2-2-2-2-0-2-0---5--5-5--5-5-5-|
E|---------------------------------------0-0-0-0-0-0---0-----------------|
      x x   x x x   x x x   x x x   x    x x x x x
CHORUS


E|----------------------------------------------------|
B|----------------------------------------------------|
G|--5-5-5-5-5-5-5-5-5-5---------------7-7-7-7-7-7-----|
D|--5-5-5-5-5-5-5-5-5-5--2-2-2-2-2-2--7-7-7-7-7-7-----|
A|--3-3-3-3-3-3-3-3-3-3--2-2-2-2-2-2--5-5-5-5-5-5-----|
E|-----------------------0-0-0-0-0-0------------------| (X4)


VERSE


E|--------------------------------------------------------------------------|
B|--------------------------------------------------------------------------|
G|---------------------------------------------------4----------------------|
D|----5-5-5-5-5-5-5-5-5-5-5-5-5-5-5-3----2-2-2-2-2-0-4-0---7-7-7-7-7-7-7-7--|
A|----3-3-3-3-3-3-3-3-3-3-3-3-3-3-3-3----2-2-2-2-2-0-2-0---5-5-5-5-5-5-5-5--|
E|---------------------------------------0-0-0-0-0-0---0--------------------| (X2)
      x x   x x x   x x x   x x x   x    x x x x x         x x   x x x   x

E|--------------------------------------------------------------------------|
B|-0-0-5-0-0-0-5-0-0-0-5-0-0-0-5-0--0-0-3-0-0-0-3-0-0-0-7-0-0-0-7-0---------|
G|--------------------------------------------------------------------------|
D|--------------------------------------------------------------------------|
A|--------------------------------------------------------------------------|
E|--------------------------------------------------------------------------|
   x x   x x x   x x x   x x x   x  x x   x x x   x x x   x x x   x


E|--------------------------------------------------------------------------|
B|-0-0-5-0-0-0-5-0-0-0-5-0-0-0-5-0--0-0-3-0-0-0-3-0-------------------------|
G|--------------------------------------------------------------------------|
D|--------------------------------------------------------------------------|
A|--------------------------------------------------------------------------|
E|--------------------------------------------------------------------------|
   x x   x x x   x x x   x x x   x


THen...
E|--------------------------------------------------------------------------|
B|--------------------------------------------------------------------------|
G|--5h7-7-7-7-7-7---5h7-7-7-7-7---------------------------------------------|
D|--5h7-7-7-7-7-7---5h7-7-7-7-7---------------------------------------------|
A|--5-5-5-5-5-5-5---5-5-5-5-5-5---------------------------------------------|
E|--------------------------------------------------------------------------|


CHORUS


E|----------------------------------------------------|
B|----------------------------------------------------|
G|--5-5-5-5-5-5-5-5-5-5---------------7-7-7-7-7-7-----|
D|--5-5-5-5-5-5-5-5-5-5--2-2-2-2-2-2--7-7-7-7-7-7-----|
A|--3-3-3-3-3-3-3-3-3-3--2-2-2-2-2-2--5-5-5-5-5-5-----|
E|-----------------------0-0-0-0-0-0------------------| (X4)

E|-------------------------------------------------------------------|
B|-------------------------------------------------------------------|
G|-------------------------------------------------------------------|
D|-0-0-5-0-0-0-5-0-0-0-5-0-0-0-5-0--0-0-7-0-0-0-7-0-0-0-7-0-0-0-7-0--|
A|-------------------------------------------------------------------|
E|-------------------------------------------------------------------|


E|-------------------------------------------------------------------|
B|-------------------------------------------------------------------|
G|-------------------------------------------------------------------|
D|-0-0-5-0-0-0-5-0-0-0-5-0-0-0-5-0--0-0-4-0-0-0-4-0-0-0-4-0-0-0-4-0--|
A|-------------------------------------------------------------------|
E|-------------------------------------------------------------------|


E|-------------------------------------------------------------------|
B|-------------------------------------------------------------------|
G|-------------------------------------------------------------------|
D|-0-0-5-0-0-0-5-0-0-0-5-0-0-0-5-0--0-0-7-0-0-0-7-0-0-0-7-0-0-0-7-0--|
A|-------------------------------------------------------------------|
E|-------------------------------------------------------------------|


E|-------------------------------------------------------------------|
B|-------------------------------------------------------------------|
G|-------------------------------------------------------------------|
D|--5-5-5-5-5-5-5-5-5-5-5-5-5-5-5-5----5h7-7-7-7-7-7---5h7-7-7-7-7---|
D|-------------------------------------5h7-7-7-7-7-7---5h7-7-7-7-7---|
A|-------------------------------------5-5-5-5-5-5-5---5-5-5-5-5-5---|
A|-------------------------------------------------------------------|
E|-------------------------------------------------------------------|


CHORUS


E|------------------------------------------------------|
B|------------------------------------------------------|
G|--5-5-5-5-5-5-5-5-5-5---------------7-7-7-7-7-7-------|
D|--5-5-5-5-5-5-5-5-5-5--2-2-2-2-2-2--7-7-7-7-7-7-------|
A|--3-3-3-3-3-3-3-3-3-3--2-2-2-2-2-2--5-5-5-5-5-5-------|(x2)
E|-----------------------0-0-0-0-0-0--------------------|


E|------------------------------------------------------|
B|------------------------------------------------------|
G|--55555555555555555------------------7777777777777777-|
D|--55555555555555555-2222222222222222-7777777777777777-|
A|--33333333333333333-2222222222222222-5555555555555555-|(x2)
E|--------------------0000000000000000------------------|


OUTRO

E|----------------------------------------------------------------------|
B|----------------------------------------------------------------------|
G|----------------------------------------------------------------------|
D|--5-5-5-5-5-5-5-5-5-5-5-5-5-5-5-5-------------------7-7-7-7-7-7-7-7---|
A|--3-3-3-3-3-3-3-3-3-3-3-3-3-3-3-3--2-2-2-2-2-2-2-2--5-5-5-5-5-5-5-5---|
E|-----------------------------------0-0-0-0-0-0-0-0--------------------|
            
Submit corrections

comments powered by Disqus
↑ Back to top | Love Equals Death Tabs for Pray For Me. Lyrics for acoustic guitar and electric guitar. Tablatures and chords are parodies/interpretations of the original songs. You may use it for private study, scholarship, research or language learning purposes only