» » »

Caught In A Trap Bass tabs (ver.1)

Artists:  A B C D E F G H I J K L M N O P Q R S T U V W X Y Z # 

Caught In A Trap Bass tabs (ver.1)

Love Equals Death
Rating:
0/5 (0 votes)

Tabs too difficult? Try these video lessons and learn fast.
                Band: Love Equals Death

Please Rate!

> = repeat
~ = let ring

Intro:

G|----|
D|-5>-| 
A|----| 
E|----|

Main riff: (0:05) repeat many times 

			 a     b     c 	

G|----88----77-33-55----|-3--|-3~-|----|
D|-55----55----------33-|--3-|----|-5~-| 
A|----------------------|----|----|----| 
E|----------------------|----|----|----|

(a,b,c represent variations at the end of the riff)

Then: (1:00)

G|---------------------|
D|---------------------| 
A|-----------3333------| 
E|-1111-3333------3333-|

G|---------------------|
D|-----------------53--| 
A|-----------3333-3--5-| 
E|-1111-3333-----------|

G|---------------------|
D|---------------------| 
A|-----------3333------| 
E|-1111-3333------3333-|

G|------------------|
D|------------------| 
A|-----------333333-| 
E|-1111-3333--------|

Main riff (1:13) repeat many times

Then: (1:47)

G|-----|
D|-----| 
A|-3>>-| 
E|-----|

Then: Main riff (1:52) repeat until the end
            
Tabs too difficult? Try these video lessons and learn fast.




comments powered by Disqus
↑ Back to top | Tablatures and chords are parodies/interpretations of the original songs. You may use it for private study, scholarship, research or language learning purposes only