» » »

Black Rain Bass tabs (ver.1)

Artists:  A B C D E F G H I J K L M N O P Q R S T U V W X Y Z # 

Black Rain Bass tabs (ver.1)

Love Equals Death
Rating:
0/5 (0 votes)

Hard to play? Try these video lessons and learn fast.
                Band: Love Equals Death

Please Rate!

Intro/Verse: (0:04)

G--------------------------|
D|----77----77----77-55-77-| 
A|-00----00----00----------| x16
E|-------------------------|

Pre-Chorus 0:57

G|-------------------|
D|-333------555------| 
A|-----3333-----5555-| 
E|-------------------|

G|------------------------------|
D|-7777-99-1010-1212-1010-99-77-| 
A|------------------------------| 
E|------------------------------|

G|-----------------------------------|
D|-333------555----------------------| 
A|-----3333-----5555-----------------| 
E|-------------------000000000000000-|

Then:

Intro/Verse (1:10) x8
Pre-Chorus (1:37) 

Chorus: (1:50)

G|-------------------------------|
D|-------2355555557--------------| 
A|-333333----------------------2-| x2
E|-----------------55-55-55-535--|

G|------------------------------------|
D|-------2355555577-33333323/77777777-| / = slide up
A|-333333-----------------------------|
E|------------------------------------|

G|--------------------------|
D|-------2355555555---------| 
A|-333333-------------------|
E|-----------------00000000-|

Then:

Intro/verse (2:17) x4
Pre-chorus (2:30)
Chorus (2:44)
Intro/verse (3:11) x4
            
Hard to play? Try these video lessons and learn fast. | Correct




comments powered by Disqus
↑ Back to top | Tablatures and chords are parodies/interpretations of the original songs. You may use it for private study, scholarship, research or language learning purposes only