» » »

Louis Xiv, Finding Out True Love Is Blind Tabs (ver.1)

Artists:  A B C D E F G H I J K L M N O P Q R S T U V W X Y Z # 

Finding Out True Love Is Blind Tabs (ver.1)

Louis Xiv Tabs
 Rating:
4/5 (5 votes)
Finding Out True Love Is Blind lessons Tabs too difficult? Try these video lessons and learn fast
1
                -------------------------------------------------------------------------------
-------------------------------------------------------------------------------

x = mute note

Tuning:Standard

INTRO
e|---------------------------------------------------------------------------|
B|----------3x-------------------------3x-------------------------------3x---|
G|-------------2x-2x-4x4x----6-----------2x-------------6-----------------2x-|
D|----------0x-------------------------0x--5x5x7x7x---------------------0x---|
A|------3x-----------------------3x3x------3x3x5x5x-------------3x3x---------|
E|5x--3x--2x---2x----3x3x--5x--3x----2x-------------5x5x5x5x3x3x----2x2x-----|

e|---------------------------------------------------------------------------|
B|---------------------------------------------------------------------------|
G|2x2x4x4x--------------------2x2x------------------------6x6x6x6x6x6x6x6x---|
D|--------------------------------5x5x7x7x-----------------------------------|
A|--------------------3x3x--------3x3x5x5x-----------------------------------|
E|2x2x3x3x5x5x5x5x3x3x----2x2x------------5x5x5x5x5x5x5x5x5x5x5x5x5x5x5x5x---|

FIRST CHORUS
e|---------------------------------------------------------------------------|
B|------------------111--333--------------------111--333---------------------|
G|6--6-----5-----7--222--444--6--6-----5-----7--222--444--6--6-----5-----7---|
D|7--7-----5-----7--333--555--7--7-----5-----7--333--555--7--7-----5-----7---|
A|7-----5--3--4--5------------7-----5--3--4--5------------7-----5--3--4--5---|
E|5-----3-----2---------------5-----3-----2---------------5-----3-----2------|

e|--------------------------------------------------------0-0-0-0-0-0--------|
B|111-333--------------------111-333------------------2-2-2-2-2-2-2-2--------|
G|222-444--6--6-----5-----7--222-444--2-2-2-2-2-2-2-2-2-2-2-2-2-2-2-2--------|
D|333-555--7--7-----5-----7--333-555--2-2-2-2-2-2-2-2-2-2-2-2-2-2-2-2--------|
A|---------7-----5--3--4--5-----------0-0-0-0-0-0-0-0-0-0-0-0-0-0-0-0--------|
E|---------5-----3-----2-----------------------------------------------------|

SECOND CHORUS
e|---------------------------------------------------------------------------|
B|------------------111-333--------------------111-333-----------------------|
G|6--6-----5-----7--222-444--6--6-----5-----7--222-444-----------------------|
D|7--7-----5-----7--333-555--7--7-----5-----7--333-555-----------------------|
A|7-----5--3--4--5-----------7-----5--3--4--5--------------------------------|
E|5-----3-----2--------------5-----3-----2-----------------------------------|

e|---------------------------------------------------------------------------|
B|------------------111-333--------------------111-333-----------------------|
G|6--6-----5-----7--222-444--6--6-----5-----7--222-444-----------------------|
D|7--7-----5-----7--333-555--7--7-----5-----7--333-555-----------------------|
A|7-----5--3--4--5-----------7-----5--3--4--5--------------------------------|
E|5-----3-----2--------------5-----3-----2-----------------------------------|
BREAK (PIANO CHORUS)

THIRD CHORUS
e|---------------------------------------------------------------------------|
B|------------------111-333--------------------111-333-----------------------|
G|6--6-----5-----7--222-444--6--6-----5-----7--222-444-----------------------|
D|7--7-----5-----7--333-555--7--7-----5-----7--333-555-----------------------|
A|7-----5--3--4--5-----------7-----5--3--4--5--------------------------------|
E|5-----3-----2--------------5-----3-----2-----------------------------------|

e|---------------------------------------------------------------------------|
B|------------------111-333--------------------111-333-----------------------|
G|6--6-----5-----7--222-444--6--6-----5-----7--222-444-----------------------|
D|7--7-----5-----7--333-555--7--7-----5-----7--333-555-----------------------|
A|7-----5--3--4--5-----------7-----5--3--4--5--------------------------------|
E|5-----3-----2--------------5-----3-----2-----------------------------------|
BREAK (VOCAL CHORUS)

FOURTH CHORUS
e|---------------------------------------------------------------------------|
B|------------------111-333--------------------111-333-----------------------|
G|6--6-----5-----7--222-444--6--6-----5-----7--222-444-----------------------|
D|7--7-----5-----7--333-555--7--7-----5-----7--333-555-----------------------|
A|7-----5--3--4--5-----------7-----5--3--4--5--------------------------------|
E|5-----3-----2--------------5-----3-----2-----------------------------------|

e|---------------------------------------------------------------------------|
B|------------------111-333--------------------111-333-----------------------|
G|6--6-----5-----7--222-444--6--6-----5-----7--222-444-----------------------|
D|7--7-----5-----7--333-555--7--7-----5-----7--333-555-----------------------|
A|7-----5--3--4--5-----------7-----5--3--4--5--------------------------------|
E|5-----3-----2--------------5-----3-----2-----------------------------------|
BREAK (2nd PIANO CHORUS)

OUTRO
e|---------------------------------------------------------------------------|
B|---------------------------------------------------------------------------|
G|6--6-----5------7--222-444--6--6-----5------7--222-444---------------------|
D|7--7-----5------7--333-555--7--7-----5------7--333-555---------------------|
A|7-----5--3---4--5--333-555--7-----5--3---4--5--333-555---------------------|
E|5-----3----3-2--------------5-----3----3-2---------------------------------|

e|---------------------------------------------------------------------------|
B|---------------------------------------------------------------------------|
G|6--6-----5------7--222-444--6--6-----5------7--222-444---------------------|
D|7--7-----5------7--333-555--7--7-----5------7--333-555---------------------|
A|7-----5--3---4--5--333-555--7-----5--3---4--5--333-555---------------------|
E|5-----3----3-2--------------5-----3----3-2---------------------------------|
            
Submit corrections

comments powered by Disqus
↑ Back to top | Louis Xiv Tabs for Finding Out True Love Is Blind. Lyrics for acoustic guitar and electric guitar. 1 Tablatures and chords are parodies/interpretations of the original songs. You may use it for private study, scholarship, research or language learning purposes only