>
 >
What A Wonderful World

What A Wonderful World Guitar Tabs

Louis Armstrong - What A Wonderful World chords, tabs, tablatures, lyrics

Guitar lessons | Add/correct | Request | Top 50 tabs Artists:  A B C D E F G H I J K L M N O P Q R S T U V W X Y Z 0-9

What A Wonderful World Guitar Tabs – Louis Armstrong

CD, Sheet music, Poster

Do you like What A Wonderful World? Share with your friends now
Bass TabsChordsChords v2Chords v3Chords v4Chords v5Chords v6Chords v7Chords v8Chords v9TabsTabs v2Tabs v3Tabs v4Tabs v5Tabs v6Tabs v7Tabs v8UkuleleUkulele v2
-------------------------------------------------------------------------------
                            What a wonderful world-Louis Armstrong
-------------------------------------------------------------------------------

Tuning:Standard
Arpegio style

 Intro:  F             Gm             F             Gm        I see.....
e|-------1------|--------3-----|-------1------|------3----------------------|
B|-----1---1----|------3---3---|-----1---1----|----3------------------------|
G|---2-------2--|----3------3--|---2-------2--|--3--------------------------|
D|-3------------|-5------------|-3------------|-5---------------------------|
A|--------------|--------------|--------------|-----------------------------|
E|--------------|--------------|--------------|-----------------------------|

      F              Am7              Bb           Am7            Gm
e|-------1------|-------0------|--------------|-------0------|-------3------|
B|-----1---1----|-------1------|-------3------|-------1------|-----3---3----|
G|---2-------2--|-----0---0----|-----3---3----|------0---0---|---3-------3--|
D|-3------------|---2-------3--|---3-------3--|---3--------3-|-5------------|
A|--------------|-0------------|-1------------|-0------------|--------------|
E|--------------|--------------|--------------|--------------|--------------|

         F                  A7              Dm             Db
e|--------1-------|----------------|-------1--------|-------1--------|
B|------1----1----|--------2-------|-----3----3-----|-----2----2-----|
G|----2--------1--|-----0-----0----|---2---------2--|---1--------1---|
D|-3--------------|---2---------2--|-0--------------|----------------|
A|----------------|-0--------------|----------------|-4--------------|
E|----------------|----------------|----------------|----------------|

         Db             Gm7              C7               F
e|---------1----|-------3---------|----------------|-------0------------------|
B|------2-----2-|-------3---------|-------0--------|-----1---1----------------|
G|----1---------|-----3----3------|-----3----3-----|---2--------2-------------|
D|--------------|---3--------3----|---2---------3--|-3------------------------|
A|-4------------|-----------------|-3--------------|--------------------------|
E|--------------|-3---------------|----------------|--------------------------|

          F+               Bmaj7             C7
e|----------1-------|--------1-------|-----------------|----------------------|
B|-------2-----2----|--------3-------|---------0-------|----------------------|
G|----2-----------2-|------2----2----|------3-----3----|----------------------|
D|-3----------------|----3---------3-|---2-----------2-|----------------------|
A|------------------|-1--------------|-3---------------|----------------------|
E|------------------|----------------|-----------------|----------------------|


      F              Am7              Bb           Am7            Gm
e|-------1------|-------0------|--------------|-------0------|-------3------|
B|-----1---1----|-------1------|-------3------|-------1------|-----3---3----|
G|---2-------2--|-----0---0----|-----3---3----|------0---0---|---3-------3--|
D|-3------------|---2-------3--|---3-------3--|---2--------3-|-5------------|
A|--------------|-0------------|-1------------|-0------------|--------------|
E|--------------|--------------|--------------|--------------|--------------|

         F                  A7              Dm             Db
e|--------1-------|----------------|-------1--------|-------1--------|
B|------1----1----|--------2-------|-----3----3-----|-----2----2-----|
G|----2--------1--|-----0-----0----|---2---------2--|---1--------1---|
D|-3--------------|---2---------2--|-0--------------|----------------|
A|----------------|-0--------------|----------------|-4--------------|
E|----------------|----------------|----------------|----------------|

         Db             Gm7              C7               F
e|---------1----|-------3---------|----------------|-------0------------------|
B|------2-----2-|-------3---------|-------0--------|-----1---1----------------|
G|----1---------|-----3----3------|-----3----3-----|---2--------2-------------|
D|--------------|---3--------3----|---2---------3--|-3------------------------|
A|-4------------|-----------------|-3--------------|--------------------------|
E|--------------|-3---------------|----------------|--------------------------|

               Bb                          F                       The
e|--------------------------------|---------1-------------------------------|
B|----------3---------------3-----|------1-----1----------------------------|
G|-------3-----3---------3-----3--|---2-----------2-------------------------|
D|----3----------3----3-----------|-3---------------------------------------|
A|-1---------------1--------------|-----------------------------------------|
E|--------------------------------|-----------------------------------------|

colours.. Gm                 C                Am7               Dm
e|--------3----------|-------0-------|---------0-------|---------1----------|
B|--------3----------|-------1-------|---------1-------|------3-----3-------|
G|------3----3-------|-----0----0----|-------0----0----|---2-----------2----|
D|----3---------3----|---2--------2--|----2----------2-|-0------------------|
A|-------------------|-3-------------|-0---------------|--------------------|
E|-3-----------------|---------------|-----------------|--------------------|

         Gm                 C                Am7            Dm I see
e|--------3----------|-------0-------|---------0-------|---------1----------|
B|--------3----------|-------1-------|---------1-------|------3-----3-------|
G|------3----3-------|-----0----0----|-------0----0----|---2-----------2----|
D|----3---------3----|---2--------2--|----2----------2-|-0------------------|
A|-------------------|-3-------------|-0---------------|--------------------|
E|-3-----------------|---------------|-----------------|--------------------|

friends.. Dm                Am7
e|---------1--------|----------0-------|
B|------3-----3-----|----------1-------|
G|---2-----------2--|-------0-----0----|
D|-0----------------|----2-----------2-|
A|------------------|-0----------------|
E|------------------|------------------|

        Dm                 Am7
e|---------1--------|----------0-------|
B|------3-----3-----|----------1-------|
G|---2-----------2--|-------0-----0----|
D|-3----------------|----2-----------2-|
A|------------------|-0----------------|
E|------------------|------------------|

        Dm              F#dim7              Gm7               C
e|----------1-------|-------2--------|--------3------|--------0-------------|
B|-------3-----3----|-----1----1-----|--------3------|--------1-------------|
G|----2-----------2-|---2---------2--|------3----3---|------0---0-----------|
D|-0----------------|-1--------------|----3--------3-|---2--------0---------|
A|------------------|----------------|---------------|-3--------------------|
E|------------------|----------------|-3-------------|----------------------|


      F              Am7              Bb           Am7            Gm
e|-------1------|-------0------|--------------|-------0------|-------3------|
B|-----1---1----|-------1------|-------3------|-------1------|-----3---3----|
G|---2-------2--|-----0---0----|-----3---3----|------0---0---|---3-------3--|
D|-3------------|---2-------3--|---3-------3--|---3--------3-|-5------------|
A|--------------|-0------------|-1------------|-0------------|--------------|
E|--------------|--------------|--------------|--------------|--------------|

         F                  A7              Dm             Db
e|--------1-------|----------------|-------1--------|-------1--------|
B|------1----1----|--------2-------|-----3----3-----|-----2----2-----|
G|----2--------1--|-----0-----0----|---2---------2--|---1--------1---|
D|-3--------------|---2---------2--|-0--------------|----------------|
A|----------------|-0--------------|----------------|-4--------------|
E|----------------|----------------|----------------|----------------|

         Db             Gm7              C7               F
e|---------1----|-------3---------|----------------|-------0------------------|
B|------2-----2-|-------3---------|-------0--------|-----1---1----------------|
G|----1---------|-----3----3------|-----3----3-----|---2--------2-------------|
D|--------------|---3--------3----|---2---------3--|-3------------------------|
A|-4------------|-----------------|-3--------------|--------------------------|
E|--------------|-3---------------|----------------|--------------------------|

         Eb                   D                             G7
e|-------4--------|---------2----------------2------|-------1---------1-----|
B|-------5--------|------3-----3-----------3----3---|-------0---------0-----|
G|-----4----4-----|---2-----------2-----2---------2-|-----------------------|
D|---5--------5---|-0----------------0--------------|-----0-----0---0-------|
A|-6--------------|---------------------------------|---2--------2-2--------|
E|----------------|---------------------------------|-3-----------3---------|

C7   F.

| /  slide up
| \  slide down
| h  hammer-on
| p  pull-off
| ~  vibrato
| +  harmonic
| x  Mute note
===============================================================================





Comments


Popular Louis Armstrong tabs & chords
What A Wonderful World Bass Tabs
Cheek To Cheek Chords
What A Wonderful World 4 Chords
What A Wonderful World 8 Chords
What A Wonderful World 9 Chords
When You're Smiling 1 Chords
What A Wonderful World 8 Tabs
La Vie En Rose 2 Ukulele
When The Saints Go Marching In Ukulele
Wonderful World Ukulele


Song lyrics



↑ Back to top | Tablatures and chords are parodies/interpretations of the original songs. You may use it for private study, scholarship, research or language learning purposes only
© 2014 AZChords.com Contact us | Privacy policy | DMCA | Add/correct tabs | Request tabs | Top 50 tabs