» » »

Loudblast, No Tears To Share Tabs (ver.1)

Artists:  A B C D E F G H I J K L M N O P Q R S T U V W X Y Z # 

No Tears To Share Tabs (ver.1)

Loudblast Tabs
 Rating:
4/5 (4 votes)
No Tears To Share lessons Tabs too difficult? Try these video lessons and learn fast
1
                "No tears to share" by LOUDBLAST from the album Cross The Threshold
Transcription : Julien Lincy 

#Tuning : down one whole step (D,A,F,C,G,D)
#Effects :    /  slide
              ~  vibrato
              PM palm mute

#Use a heavy distortion to play this song

#Introduction:
Riff 1
   let ring...         let ring...  let ring...
|----------------------------------------------------------------------------
|----------------------------------------------------------------------------
|----------------------------------------------------------------------------
|--7---------/10-9-7-6-7~------------2-----------/5-4-2-1-2----4-5-2---------
|--7---------------------------------2---------------------------------------
|--5---------------------------------0---------------------------------------
            PM:..........                        ................. 
Riff 2     
|----------------------------------------------------
|----------------------------------------------------
|----------------------------------------------------
|-7-----------7-----------4-----------3--------------
|---7-------7---7-------7---5-------5---5-------5----
|-----8-5-8-------8-5-8-------5-2-5-------5-1-5------
PM:..................................................
Riff 3    
|----------------------------------------------------
|----------------------------------------------------
|----------------------------------------------------
|-7-----7-7-7-7-----------4-----4-4-4-3--------------
|---7---7-7-7---7-------7---5---4-4-4---5-------5----
|-----8-5-5-5-----8-5-8-------5-2-2-2-----5-1-5------
PM:..................................................

Riff 4
 let ring...      let ring...
|---------------------------------------------------------------------------
|---------------------------------------------------------------------------
|---------------------------------------------------------------------------
|-2----------2-2--3-------/5-3---5^3^2---5^3^2---5^3^2-5^3^2---5^3^2-5^3^2--
|-2----------2-2--3---------------------------------------------------------
|-0----------0-0--1---------------------------------------------------------
          PM:...
Riff 5
 let ring...      let ring...
|----------------------------------------------------------------------------
|----------------------------------------------------------------------------
|----------------------------------------------------------------------------
|-2----------2-2-2-3-------/5-3---5^3^2---5^3^2---5^3^2-5^3^2---5^3^2-5^3^2--
|-2----------2-2-2-3---------------------------------------------------------
|-0----------0-0-0-1---------------------------------------------------------
          PM:.....
Riff 6
|-----------------------------------
|-----------------------------------
|-----------------------------------
|-5^7^9---5^7^9---5^7^9-5^7^9-------
|-----------------------------------
|-----------------------------------

Riff 7
|-------------------------------------------------------------------
|-------------------------------------------------------------------
|-------------------------------------------------------------------
|-4-x--------4-x--/4-3--3-x--------3-x--/3-2--2-x--------2-x--/2-1--
|-4-x--/5-4--4-x--------3-x--/4-3--3-x--------2-x--/3-2--2-x--------
|-2-x--------2-x--------1-x--------1-x--------0-x--------0-x--------
PM:..       ....       ....       ....       ....       ....       

|-----------------------
|-----------------------
|-----------------------
|-4-x--/2-1--4-x--/-2-1-
|-4-x--------4-x--------
|-2-x--------2-x--------
 ....       ....

Riff 8
|-------------------------------------------------------------------------------
|-------------------------------------------------------------------------------
|-------------------------------------------------------------------------------
|-4-4-4---4-4-4-4-4-4-4-4-4-4-4---4-4-4-4-4-4-4-3-3-3---3-3-3-3-3-3-3-3-3-3-3---
|-4-4-4---4-4-4-4-4-4-4-4-4-4-4---4-4-4-4-4-4-4-3-3-3---3-3-3-3-3-3-3-3-3-3-3---
|-2-2-2---2-2-2-2-2-2-2-2-2-2-2---2-2-2-2-2-2-2-1-1-1---1-1-1-1-1-1-1-1-1-1-1---
PM:....   .....................   ...................   .....................

|---------------------------------------------------------------
|---------------------------------------------------------------
|---------------------------------------------------------------
|-3-3-3-3-3-3-3-2-2-2---2-2-2-2-2-2-2-2-2-2-2---2-2-2-2-2-2-2---
|-3-3-3-3-3-3-3-2-2-2---2-2-2-2-2-2-2-2-2-2-2---2-2-2-2-2-2-2---
|-1-1-1-1-1-1-1-0-0-0---0-0-0-0-0-0-0-0-0-0-0---0-0-0-0-0-0-0---
PM:..................   .....................   .............

Riff 9
|------------------------------------------------
|------------------------------------------------
|------------------------------------------5~----
|-7-x---------7-x---------2-x---------2-x--------
|-7-x--2^3^2--7-x--3^5^3--2-x--2^3^2--2-x-----2--
|-5-x---------5-x---------0-x---------0-x--------
PM:..        ....        ....        ....

Riff 10
|-------------------------------------------------------------------------------
|-------------------------------------------------------------------------------
|-------------------------------------------------------------------------------
|-7-7-7---7-7-7-7-7-7-7-7-7-7-7---7-7-7-7-7-7-7-7-7-7---7-7-7-7-7-7-7-7-7-7-7---
|-7-7-7---7-7-7-7-7-7-7-7-7-7-7---7-7-7-7-7-7-7-7-7-7---7-7-7-7-7-7-7-7-7-7-7---
|-5-5-5---5-5-5-5-5-5-5-5-5-5-5---5-5-5-5-5-5-5-5-5-5---5-5-5-5-5-5-5-5-5-5-5---
PM:....   .....................   ...................   .....................

|-------------------------------------------------------------------------------
|-------------------------------------------------------------------------------
|-------------------------------------------------------------------------------
|-7-7-7-7-7-7-7-7-7-7---7-7-7-7-7-7-7-7-7-7-7---7-7-7-7-7-7-7-7-7-7---7-7-7-7-7-
|-7-7-7-7-7-7-7-7-7-7---7-7-7-7-7-7-7-7-7-7-7---7-7-7-7-7-7-7-7-7-7---7-7-7-7-7-
|-5-5-5-5-5-5-5-5-5-5---5-5-5-5-5-5-5-5-5-5-5---5-5-5-5-5-5-5-5-5-5---5-5-5-5-5-
PM:..................   .....................   ...................   .........

|-------------------------------------------------------------------------------
|-------------------------------------------------------------------------------
|-------------------------------------------------------------------------------
|-7-7-7-7-7---7-7-7-7-7-7-7-6-6-6---6-6-6-6-6-6-6-6-6-6-6---6-6-6-6-6-6-6-5-5-5-
|-7-7-7-7-7---7-7-7-7-7-7-7-6-6-6---6-6-6-6-6-6-6-6-6-6-6---6-6-6-6-6-6-6-5-5-5-
|-5-5-5-5-5---5-5-5-5-5-5-5-4-4-4---4-4-4-4-4-4-4-4-4-4-4---4-4-4-4-4-4-4-3-3-3-
PM:........   ...................   .....................   ...................

|---------------------------------------------------------------------
|---------------------------------------------------------------------
|---------------------------------------------------------------------
|-5-5-5-5-5-5-5-5-5-5-5---5-5-5-5-5-5-5-9-9-9---9-9-9-9-9-9-9-9-9-9-9-
|-5-5-5-5-5-5-5-5-5-5-5---5-5-5-5-5-5-5-9-9-9---9-9-9-9-9-9-9-9-9-9-9-
|-3-3-3-3-3-3-3-3-3-3-3---3-3-3-3-3-3-3-7-7-7---7-7-7-7-7-7-7-7-7-7-7-
PM:....................   ...................   .....................

|---------------------------------------------------------------------------------------
|---------------------------------------------------------------------------------------
|---------------------------------------------------------------------------------------
|-9-9-9-9-9-9-9-4-4-4--4-4-4-4-4-4-4-4-4-4-4--4-4-4-4-4-4-4-3-3-3--3-3-3-3-3-3-3-3-3-3-3
|-9-9-9-9-9-9-9-4-4-4--4-4-4-4-4-4-4-4-4-4-4--4-4-4-4-4-4-4-3-3-3--3-3-3-3-3-3-3-3-3-3-3
|-7-7-7-7-7-7-7-2-2-2--2-2-2-2-2-2-2-2-2-2-2--2-2-2-2-2-2-2-1-1-1--1-1-1-1-1-1-1-1-1-1-1
PM:..................   .....................   ...................   ..................

|-----------------------------------------------------------------------------------------
|-----------------------------------------------------------------------------------------
|-----------------------------------------------------------------------------------------
|-3-3-3-3-3-3-3-2-2-2---2-2-2-2-2-2-2-2-2-2-2---2-2-2-2-2-2-2-7-7-7---7-7-7-7-7-7-7-7-7-7-
|-3-3-3-3-3-3-3-2-2-2---2-2-2-2-2-2-2-2-2-2-2---2-2-2-2-2-2-2-7-7-7---7-7-7-7-7-7-7-7-7-7-
|-1-1-1-1-1-1-1-0-0-0---0-0-0-0-0-0-0-0-0-0-0---0-0-0-0-0-0-0-5-5-5---5-5-5-5-5-5-5-5-5-5-
PM:..................   .....................   ...................   ...................



#And here is the song structure :
*Riff 1 ->2 times       *Riff 1 -> 2 times  
*Riff 2 ->4 times       *Riff 3 ->2 times
*Riff 4 ->1 time        *Riff 5 ->3 times
*Riff 6 ->1 time        *Riff 2 ->2 times
*Riff 3 ->2 times       *Riff 4 ->1 time
*Riff 5 ->3 times       *Riff 6 ->1 time
*Riff 7 ->2 times       *Riff 8 ->2 times
*Riff 7 ->1 time        *Riff 9 ->4 times
*Solo (if anyone could transcribe it...)
*Riff 10                *Riff 7 ->2 times  
*Riff 8 ->2 times       *Riff 7 ->ad lib...


It sounds quite right when i play this song, i hope it will for you...
            
Submit corrections

comments powered by Disqus
↑ Back to top | Loudblast Tabs for No Tears To Share. Lyrics for acoustic guitar and electric guitar. 1 Tablatures and chords are parodies/interpretations of the original songs. You may use it for private study, scholarship, research or language learning purposes only