» » »

Loudblast, Malignant Growth Tabs (ver.1)

Artists:  A B C D E F G H I J K L M N O P Q R S T U V W X Y Z # 

Malignant Growth Tabs (ver.1)

Loudblast Tabs
 Rating:
4/5 (4 votes)
Malignant Growth lessons Tabs too difficult? Try these video lessons and learn fast
1
                
INTRO                      Légende :
|----------------|         pm=palme mute
|----------------|       ^^^^=the 2nd guitard play with no PM
|----------------|        (*)=playing sometime
|----------*---*-|        */*=slide
|-2----8---2---2-|        *p*=pull
|-0----6---0---0-|

RIFF 1
|------------------------------------------------------------------|
|------------------------------------------------------------------|
|------------------------------------------------------------------|
|------------------------------------------------------------------|
|(2)-------------(3)-----(5)------6------------------------------2-|
|-000000000000000011111111333333334--44444444444444444444444444440-|
 pm------------------------------+  pm--------------------------+

RIFF 2
|------------------------------------------------------------------|
|------------------------------------------------------------------|
|------------------------------------------------------------------|
|------------------------------------------------------------------|
|(2)-------------(3)-----(5)------4------------------------------2-|
|-000000000000000011111111333333332--22222222222222222222222222220-|
 pm------------------------------+  pm--------------------------+

 RIFF 3                                       RIFF 4
|------------------------------------------|
|------------------------------------------|
|------------------------------------------|
|------------------------------------------|
|------------------------------------------|
|------------------------------------------|
|------------------------------------------|
|------------------9-----------------7-8-9-|
|------------------9-----------------7-8-9-|
|-8---8-10-8-7---7---7-6---6-8-6-5---5-6-7-|
|-8---8-10-8-7---7---7-6---6-8-6-5---5-6-7-|
|------------------------------------------|
                                    pm---+
pm---+
 RIFF 5
|------------------------------------------|
|------------------------------------------|
|-7--------7/9-------9/10------10/12-14----|
|------------------------------------------|
|------------------------------------------|
|------------------------------------------|

 RIFF 6                            RIFF 7
|-------------------------------| |-------------------------------|
|-------------------------------| |-------------------------------|
|-------------------------------| |-------------------------------|
|---------------------------5-5-| |---------------------------6-6-|
|-00000000-5p0-4p0-00000000-3-3-| |-00000000-5p0-4p0-00000000-4-4-|
|-------------------------------| |-------------------------------|
 pm------+        pm------+        pm------+        pm------+

 RIFF 8                            RIFF 9
|-------------------------------| |-------------------------------|
|-------------------------------| |-------------------------------|
|-------------------------------| |-------------------------------|
|-------------------------------| |-------------------------------|
|-------------------------------| |-------------------------------|
|-333333335555555566666666-6--5-| |-333333335555555566666666-5--6-|
 pm----------------------+         pm----------------------+

 RIFF 10
|-------------------------------|
|-------------------------------|
|-------------------------------|
|-------------------------------|
|-2-------8---^^^^^-----2-------|
|-0---0---6---7-6-7-0---0---1/4-|
     pm      pm---+    pm

ORDER:
Intro
Riff 1
Riff 2 stop chords at E5
Riff 1
Riff 2
Riff 4 1st guitard and Riff 5 2nd guittard x2
Riff 4 x2
Riff 3 x2
Riff 1
Riff 2 stop chords at E5
Riff 1
Riff 2
Riff 4 1st guitard and Riff 5 2nd guittard x2
Riff 4 x2
Riff 3 x2
Riff 6 and Riff 7 x6
Riff 8 and Riff 9 x4
Riff 10 x4
Riff 4 1st guitard and Riff 5 2nd guittard x2
Riff 4 x2
Riff 3 x2 stop chords at E5
END
            
Submit corrections

comments powered by Disqus
↑ Back to top | Loudblast Tabs for Malignant Growth. Lyrics for acoustic guitar and electric guitar. 1 Tablatures and chords are parodies/interpretations of the original songs. You may use it for private study, scholarship, research or language learning purposes only