» » »

Quien Mato A Marylin Bass tabs (ver.1)

Artists:  A B C D E F G H I J K L M N O P Q R S T U V W X Y Z # 

Quien Mato A Marylin Bass tabs (ver.1)

Los Prisioneros
Rating:
0/5 (0 votes)

Hard to play? Try these video lessons and learn fast.
                +++++++++++++++++++++++++++++++++++++++++++
| Los Prisioneros- ¿Quien Mató A Marylin? |
+++++++++++++++++++++++++++++++++++++++++++


"La televisión o el ratón Mickey..."

Tuning: EADG


Intro
1.
G|-----------------|
D|-----------------|
A|-00000000-00000x-|
E|-----------------|

2.
G|------------------------------------------------------------------|
D|---------------------------------------------------------2-2222-2-|
A|-----------------4-4444-34-4444-45-5555-45-5555-52-2222-2---------|
E|-5-5555-45-5555-5-------------------------------------------------|

Verse
"Quiero saber quien fué..."
3.
G|------------------------------------------------------------------|
D|---------------------------------------------------------2-2222-1-|
A|-----------------4-4444-34-4444-45-5555-45-5555-52-2222-2---------|--x2
E|-5-5555-45-5555-5-------------------------------------------------|

Chorus
"¿Quien mató a marylin?"
4.
G|---------------------------------------------------------------------|
D|-------------------------------------------------------2-2-------2-2-|
A|-454555-454555-0x-0x-----0x-0x-----454555-454555-0x-0x-----0x-0x-----|
E|---------------------------------------------------------------------|

"¿Quien mató a marylin?, Dime, dime, dime quien fué..."
5.
G|---------------------------------|
D|---------------22212222-22212222-|
A|-454555-454555-------------------|
E|---------------------------------|

Verse
"Dicen que fué un comunista..."
6.
G|------------------------------------------------------------------|
D|---------------------------------------------------------2-2222-1-|
A|-----------------4-4444-34-4444-45-5555-45-5555-52-2222-2---------|--x2
E|-5-5555-45-5555-5-------------------------------------------------|

Chorus
"¿Quien mató a marylin?"
7.
G|---------------------2-2-------2-2-----------------------------------|
D|-------------------------------------------------------2-2-------2-2-|
A|-454555-454555-0x-0x-----0x-0x-----454555-454555-0x-0x-----0x-0x-----|
E|---------------------------------------------------------------------|

"¿Quien mató a marylin?, Dime, dime, dime quien fué..."
8.
G|---------------------------------|
D|---------------22212222-22212222-|
A|-454555-454555-------------------|
E|---------------------------------|

Outro
9.
G|-----------------|
D|-----------------|
A|-00000000-00000x-|
E|-----------------|

Bridge
10.
G|-----------------------------------------------------------------------------|
D|---------------------------------------------------------------------2-22222-|
A|---------------------3/4-44444-3/4-44444-4/5-55555-4/5-55555-2-22222---------|
E|-4/5-55555-4/5-55555---------------------------------------------------------|

11.
G|------------------------------------------------------------------------|
D|---------------------------6-------6-------7-------7--------------------|
A|---------------------4-444---4-444---5-555---5-555---2-2222-7~-6~-5~-4~-|
E|-4/5-55555-4/5-55555----------------------------------------------------|

Chorus
"¿Quien mató a marylin?"
12.
G|-------------------------------------------------------2---------2---|
D|-------------------------------2-2----------------------42---------4-|
A|-454555-454555-0x-0x-----0x-0x-----454555-454555-0x-0x-----0x-0x-----|
E|---------------------0-0---------------------------------------------|

"¿Quien mató a marylin?, Dime, dime, dime quien fué..."
13.
G|---------------------------------|
D|---------------22212222-22212222-|
A|-454555-454555-------------------|
E|---------------------------------|

Verse
"Busco en los diarios la explicación..."
14.
G|--------------------------446644-----------7755----------------114433-|
D|---------557755-----334466------66---445577----7755---112244-22-------|
A|-00445577------77-44---------------55---------------22----------------|--x2
E|----------------------------------------------------------------------|

Chorus
"¿Quien mató a marylin?"
15.
G|---------------------2---------2-------------------------------------|
D|----------------------42---------4-----------------------------------|
A|-454555-454555-0x-0x-----0x-0x-----454555-454555-0x-0x-0---0x-0x-0---|
E|---------------------------------------------------------2---------2-|

"¿Quien mató a marylin?, Dime, dime, dime quien fué..."
16.
G|---------------------------------------------------|
D|---------------22212222-22212222-22212222-22212222-|
A|-454555-454555-------------------------------------|
E|---------------------------------------------------|

Outro
"Oh Marylin, Marylin..."
17.
G|-------------------------------------------------------------------------|
D|-------------------------------------------------------------------------|
A|-00000000-55557757-00000000-55557757-00000000-55557757-00000000-55557757-|
E|-------------------------------------------------------------------------|

18.
G|-------------|
D|-------------|
A|-00000000-0x-|
E|-------------|


Lyrics:


Quiero saber quien fué
Quiero saber porque sucedió
Oh oh, dime Marylin
Dime quien, quien te mató

Eras tan bella, una hermosa mujer
Quiero saber quien fué
Dime si fué el presidente
Dime si fué algun agente

Quien mató a Marylin?
La prensa fué o la radio talvez
La televisión o el ratón Mickey
Dime, dime, dime quien fué

Dicen que fué un comunista
Dicen que fué un sandinista
Dicen que fué un extremista
O talvez un alpinista

Dicen que fué tu doctor
Dicen que fué tu amigo intimo
Dicen que fuí yo, oh no
Dime quien, quien te mató

Busco en los diarios la explicación
Pero la prensa me deja peor
Oh dime, Marylin
Dime quien, quien te mató

En la tele sonriendome estás
Mis nervios estan por estallar
Dime si fué Rodrigo Beltran
O talvez un Sacsahuaman

Oh, Marylin, Marylin



+++++++++++++++++++++++++++++++++
| RaiLeff                       |
+++++++++++++++++++++++++++++++++
            
Hard to play? Try these video lessons and learn fast. | Correct




comments powered by Disqus
↑ Back to top | Tablatures and chords are parodies/interpretations of the original songs. You may use it for private study, scholarship, research or language learning purposes only