» » »

Los Prisioneros, Quien Mato A Marilyn Bass tabs (ver.1)

Artists:  A B C D E F G H I J K L M N O P Q R S T U V W X Y Z # 

Quien Mato A Marilyn Bass tabs (ver.1)

Los Prisioneros Tabs
 Rating:
4/5 (4 votes)
Quien Mato A Marilyn lessons Tabs too difficult? Try these video lessons and learn fast
1
                By Gå®



INTRO (x13) 

G[-------------------------------------------------3-3-5-5-3-3-5-5-]
D[-----------------5-5-7-7-5-5-7-7-----2-2-3-3-5-5-----------------]
A[-0-0-4-4-5-5-7-7-----------------3-3-----------------------------]
E[-----------------------------------------------------------------]

G[------------------7-7-5-5----------------------------------------]
D[------4-4-5-5-7-7---------7-7-5-5-----------------6-6-9-9-7-7-6--]
A[-5-5----------------------------------6-6-7-7-9-9----------------]
E[----------------------------------7-7----------------------------]

VERSE: (x2)

G[-------------------------------------------------]
D[-------------------------------------------------]
A[-------------------------4-4-4-4-4-4-4-4-4-4-4-4-]
E[-5-5-5-5-5-5-5-5-5-5-5-5-------------------------]


G[-------------------------------------------------------]
D[-------------------------------------------------------]
A[-5-5-5-5-5-5-5-5-5-5-5-5-----------------7-7-7-7-7-7-7-]
E[-------------------------7-7-7-7-7-7-7-7---------------]


CHORUS (x2)

G[---------------------------------------------]
D[---------------------------------------------]
A[-5-5-5-5-5-5-5-5-5-5-5-5-5-5-5-5-------------] (x2)
E[---------------------------------5--5--5--5--]


G[----------------------------------------------------------]
D[----------------------------------------------------------]
A[-5-5-5-5-5-5-5-5-5-5-5-5-5-5-5-5-5/7-7-7-7-7-7-7-7-7-7-7--]
E[----------------------------------------------------------]

END (x3)
G[------------------------]
D[------------------------]
A[------------5-5-5-7-7-7-]
E[-5-5-5-5-5--------------]
            
Submit corrections

comments powered by Disqus
↑ Back to top | Los Prisioneros Bass for Quien Mato A Marilyn. Lyrics for acoustic guitar and electric guitar. 1 Tablatures and chords are parodies/interpretations of the original songs. You may use it for private study, scholarship, research or language learning purposes only