» » »

Los Prisioneros, ¿Porque Los Ricos? Tabs (ver.1)

Artists:  A B C D E F G H I J K L M N O P Q R S T U V W X Y Z # 

¿Porque Los Ricos? Tabs (ver.1)

Los Prisioneros Tabs
Rating:
0/5 (0 votes)
Hard to play? Try these video lessons and learn fast.
                CANCION:¿POR QUÉ LOS RICOS?
GRUPO:LOS PRISIONEROS
ALBUM:PATEANDO PIEDRAS (1986)
COMPOSITOR:JORGE GONZALEZ


Intro:
______

   FA  DO  FA  DO
   lam LA# lam SOL

   1|---------------------------------|
   2|---------------------------------|
   3|---------------------------------|
   4|-------------------------3-1-----|
   5|-----------------------------3-1-|
   6|-1-----------4---1---------------|

Versos:
_______

   FA                     lam
A. Van a sus colegios a jugar
   LA#                          DO
   Con los curas con las monjas de la caridad
   FA                          lam
   Con sus cuerpos llenos de comida
   LA#                  DO
   Crecen como europeos rubios y robustos

   LA#                     FA
B. Les limpian el camino a la universidad
   SOL#                   RE#
   Llenan sus libretas de notas sin igual
   LA#               FA
   Sus cabezas saben todo lo que hay
   SOL# FA#
   Que responder

A. Y en las escuelas numeradas
   nos enseñan humildad y resignación
   nos explican de que esta demás
   intentar pensar si quiera en ser profesional

B. Tu educación es una porquería
   yo con esas notas ni si quiera trataría
   dedícate a ladrona bagó o esclavo
   SOL# FA# DO
   y nunca trates de entender

Coro:
_____

   FA                 DO
C. Porque, porque los ricos
   FA                 DO
   porque, porque los ricos
   lam                LA#
   Tienen derecho a pasarlo tan bien
   lam                DO
   tienen derecho a pasarlo tan bien

C. Porque, porque los ricos
   porque, porque los ricos
   Tienen derecho a pasarlo tan bien
   si son tan imbéciles como los pobres

   (Repite segunda parte del Intro)

A. Aquí van cruzando su ciudad
   taquillando en sus autos o en el de su papá
   disfrutando de la juventud
   del derecho heredero a ser los dueños de América del Sur

B. A veces unos tienen ganas de igualar
   forman entidades juegan a luchar
   discursos y recursos vida intelectual
   y todo sigue tan igual tan igual

C. Porque, porque los ricos
   porque, porque los ricos
   Tienen derecho a pasarlo tan bien
   si son tan imbéciles como los pobres

   LA#
D. Y los de arriba siguen
   DO#
   y los de abajo siguen
   RE#                 FA#       FA
   y nadie tiene ganas de ver un final
   LA#
   Si los de abajo creen
   DO#
   lo que de arriba dicen
   RE#                       FA#     SOL#       LA#
   en quien voy a confiar quizá al final me de igual

Solo:
_____

   1|--------------------------------------------------------------------|
   2|-------------------------8-6---6--------------------8---------------|
   3|-----------------7-8-10------8-------------------8-----5-5-5--7-5---|
   4|-8-8-8--8--8-8-8-------------------8--8---8-8-8---------------------|
   5|--------------------------------------------------------------------|
   6|--------------------------------------------------------------------|

   1|--------------------------------------------------------------------|
   2|-------6-------6-11-10-8----------------------------8---------------|
   3|----7-------7------------------------------------8-----5-5-5--7-5---|
   4|-8-------8-------------------------8--8---8-8-8---------------------|
   5|--------------------------------------------------------------------|
   6|--------------------------------------------------------------------|

D. Dime porque . . .
   Dime porque . . .

C. Porque, porque los ricos
   porque, porque los ricos
   Tienen derecho a pasarlo tan bien
   si son tan imbéciles como los pobres

C. Tantos mercedes, tanta comida
   Porque, porque, dime porque
   Tantas palabras tantas mentiras
   Porque, dime porque
            

comments powered by Disqus
↑ Back to top | Los Prisioneros Tabs for ¿Porque Los Ricos?. Lyrics for acoustic guitar and electric guitar. Tablatures and chords are parodies/interpretations of the original songs. You may use it for private study, scholarship, research or language learning purposes only