» » »

Paramar Tabs (ver.1)

Artists:  A B C D E F G H I J K L M N O P Q R S T U V W X Y Z # 

Paramar Tabs (ver.1)

Los Prisioneros
Rating:
5/5 (2 votes)

Hard to play? Try these video lessons and learn fast.
                e|-----------------------|
b|-----------------------|
g|-----------------------|
d|-7---9---4---5---------|
a|-5---7---2---3---7---5-|
e|-----------------5---3-|

Empieza Re5 o D5 con esta tecnica
|------------------------------|
|------------------------------|
|------------------------------|
|-7-x-x-7-x-x-7--7-x-x-7-x-x-7-|
|-5-x-x-5-x-x-5--5-x-x-5-x-x-5-|
|------------------------------|
Las x significa que debes pegarle 
a las dos cuerdas pero sin presionar 
ningún traste con tu mano izquierda 
esta tecnica suele llamarse 'Dead Note'
o nota muerta, escucha la canción y lo 
notarás. Esta técnica se usa en los 
versos y en el coro.

D5                      E5 
Recuerdo cuando dije que este invierno
D5                   B5      A5  
Seria menos frío que el anterior
         G5       A5       C5        
y aqui estoy congelandome
D5                    E5
No es fácil para mi hablar de esto
D5                        B5         A5
sin manosear las mismas palabras de amor
         G5           A5      C5 
que se entregan a cualquiera

    D5       A5
Paramar, paramar
       C5         G5
debes tratar de poco entregar,
    D5       A5
Paramar, paramar
       C5         G5
tu identidad debes falsear
    D5       A5
Paramar, paramar
       C5         G5
siendo estúpido serás feliz,
    D5       A5
Paramar, paramar
C5
debes evitar soñar, debes olvidar soñar

D5                     E5 
Recuerdo cuando pensé que en el mundo
D5                    B5         A5
solo podría hacerme feliz alguna vez 
        G5             A5          C5
alguien como tu, nadie más que tu


  D5                   E5                       
caminando en el frío me pregunto
  D5                      B5         A5         G5
si no ha nacido alguna chiquilla que no sepa amar
      A5       
y quiera inventar una nueva forma

    D5       A5
Paramar, paramar
        C5         G5
debes tratar de poco entregar,
    D5       A5
Paramar, paramar
       C5         G5
tu identidad debes falsear
    D5       A5
Paramar, paramar
       C5         G5
siendo estúpido serás feliz,
    D5       A5
Paramar, paramar
C5
debes evitar soñar. Amor, amor

|-----3----------3-----|
|---3---3------3---3---|
|---------4----------4-|
|----------------------|
|-5----------5---------|
|-3----------3---------|
donde oí esa palabra antes 

|-----2----------2-----|
|---3---3------3---3---|
|---------4----------4-|
|-4----------4---------|
|-2----------2---------|
|----------------------|
rehice por ti mi horario 

|-----3----------3-----|
|---3---3------3---3---|
|---------4----------4-|
|----------------------|
|-5----------5---------|
|-3----------3---------|
y compré más calendarios 

|-----1----------1-----|
|---1---1------1---1---|
|---------2----------2-|
|----------------------|
|-3----------3---------|
|-1----------1---------|
me pase un video en 3 dimensiones

|-----3----------3-----|
|---3---3------3---3---|
|---------4----------4-|
|----------------------|
|-5----------5---------|
|-3----------3---------|
con un final feliz

|-----2----------2-----|
|---2---2------2---2---|
|---------2----------2-|
|----------------------|
|-4----------4---------|
|-2----------2---------|
Traté de inyectarme mi viejo optimismo 
G5                A5 
pero eso que resulto aún era yo listo paramar

**Solo**
(En la versión de estudio se escucha otra 
guitarra tocando las notas del coro)

Parte A x2
|-------------------------------------------------|  
|-------------------------------------------------|  
|-12-12-12-11-11-11-------12-12-12-11-11-11-------|  
|-------------------12-12-------------------11-11-|  
|-------------------------------------------------|  
|-------------------------------------------------|  

|-----------------------------------------------| 
|-----------------------------------------------| 
|-12-12-12-11-11-11-------12-12-12-11-11-11-----| 
|-------------------10-10-------------------9-9-| 
|-----------------------------------------------|
|-----------------------------------------------| 

Parte B x1
|----------------------------------------------|
|----------------------------------------------|
|-12-12-12-11-11-11-12-12-14-14-14-14-14-14-14-|
|----------------------------------------------|
|----------------------------------------------|
|----------------------------------------------|

|-------------------------------------------------|
|-------------------------------------------------|
|-11-12-11-12-11-12-11-12-11-14-14-14-14-14-14-14-|
|-------------------------------------------------|
|-------------------------------------------------|
|-------------------------------------------------|

Parte C x2
|-15-15-15-14-14-14-------15-15-15-14-14-14-------| 
|-------------------15-15-------------------14-14-| 
|-------------------------------------------------| 
|-------------------------------------------------| 
|-------------------------------------------------| 
|-------------------------------------------------| 
                                                  
|-15-15-15-14-14-14-------15-15-15-14-14-14-------|
|-------------------13-13-------------------12-12-|
|-------------------------------------------------|
|-------------------------------------------------|
|-------------------------------------------------|
|-------------------------------------------------|

Parte D x1
|-15-15-15-14-14-14-------15-15-15-14-14-14-------|
|-------------------15-15-------------------14-12-|
|-------------------------------------------------|
|-------------------------------------------------|
|-------------------------------------------------|
|-------------------------------------------------|

D5                    E5            Em
Nunca pensé que justo este invierno
D5                        B5     A5
seria el más frío que he visto pasar 
      G5   A5   D5
yo no sirvo paramar.

El Em se toca así
|---7-----|
|-----8---|
|-------9-|
|---------|
|-7-------|
|---------|
            
Hard to play? Try these video lessons and learn fast. | Correct




comments powered by Disqus
↑ Back to top | Tablatures and chords are parodies/interpretations of the original songs. You may use it for private study, scholarship, research or language learning purposes only