» » »

Los Prisioneros, Muevan Las Industrias Bass tabs (ver.1)

Artists:  A B C D E F G H I J K L M N O P Q R S T U V W X Y Z # 

Muevan Las Industrias Bass tabs (ver.1)

Los Prisioneros Tabs
 Rating:
4/5 (4 votes)
Muevan Las Industrias lessons Tabs too difficult? Try these video lessons and learn fast
                              -----------------------------------------------
                   Muevan Las Indusrtias - Los Prisioneros
              -----------------------------------------------

Bass tab
______ : Ligate note

Intro

G:----------------|----------------|----------------|---------------|
D:----------------|----------------|0________________0______________|
A:3________________3_______________|----------------|---------------| x4
E:----------------|----------------|----------------|---------------|

Verse 1

G:----------------|----------------|----------------|----------------|
D:----------------|----------------|0-0-0-0---------|0-0-0-0---------|
A:3-3-3-3---------|3-3-3-3---------|--------0-0-0-0-|--------0-0-0-0-| x4
E:--------3-3-3-3-|--------3-3-3-3-|----------------|----------------|

Chorus 1

G:----------------|----------------|----------------|----------------|
D:----------------|----------------|----------------|----------------|
A:0-0-0-0-2-3-2-0-|--------0-2-0---|----------0-----|----------------| x2
E:----------------|3-3-3-3-------3-|1-1-1-1-3---3-1-|4-4-4-4-4-4-4-4-|

G:----------------|
D:----------------|
A:1-1-1---1-1-1---|
E:----------------|

Verse 2

G:----------------|----------------|----------------|----------------|
D:----------------|----------------|0-0-0-0---------|0-0-0-0---------|
A:3-3-3-3---------|3-3-3-3---------|--------0-0-0-0-|--------0-0-0-0-| x6
E:--------3-3-3-3-|--------3-3-3-3-|----------------|----------------|

Chorus 2

G:----------------|----------------|----------------|----------------|
D:----------------|----------------|----------------|----------------|
A:0-0-0-0-2-3-2-0-|--------0-2-0---|----------0-----|----------------| x2
E:----------------|3-3-3-3-------3-|1-1-1-1-3---3-1-|4-4-4-4-4-4-4-4-|

G:----------------|
D:----------------|
A:1-1-1---1-1-1---|
E:----------------|

Bridge

G:----------------|----------------|----------------|----------------|
D:----------0-----|----------0-----|----------------|----------------|
A:--------3---3---|--------3---3---|2-2-------------|2-2-------------| x2
E:3-3-3-3-------3-|3-3-3-3-------3-|----4-4-2-2-0-0-|----4-4-2-2-0-0-|

G:----------------|----------------|----------------|
D:----------------|------0-------0-|------2-------2-|
A:----0-3-----0-3-|--0-2-----0-2---|0-2-4---0-2-4---|
E:1-3-----1-3-----|3-------3-------|----------------|

Verse 3

G:----------------|----------------|----------------|----------------|
D:----------------|----------------|0-0-0-0---------|0-0-0-0---------|
A:3-3-3-3---------|3-3-3-3---------|--------0-0-0-0-|--------0-0-0-0-| x2
E:--------3-3-3-3-|--------3-3-3-3-|----------------|----------------|

Outro: 8 compactness plays the drums alone and after that comes the bass

G:----------------|----------------|----------------|---------------|
D:----------------|----------------|0________________0______________|
A:3________________3_______________|----------------|---------------|
E:----------------|----------------|----------------|---------------|

Verse 4

G:----------------|----------------|----------------|----------------|
D:----------------|----------------|0-0-0-0---------|0-0-0-0---------|
A:3-3-3-3---------|3-3-3-3---------|--------0-0-0-0-|--------0-0-0-0-| x2
E:--------3-3-3-3-|--------3-3-3-3-|----------------|----------------|

Chorus 3: this chorus is played without singing

G:----------------|----------------|----------------|----------------|
D:----------------|----------------|----------------|----------------|
A:0-0-0-0-2-3-2-0-|--------0-2-0---|----------0-----|----------------| x2
E:----------------|3-3-3-3-------3-|1-1-1-1-3---3-1-|4-4-4-4-4-4-4-4-|

G:----------------|
D:----------------|
A:1-1-1---1-1-1---|
E:----------------|

end: This is repeated until the volume down completely

G:----------------|----------------|----------------|----------------|
D:----------------|----------------|0-0-0-0---------|0-0-0-0---------|
A:3-3-3-3---------|3-3-3-3---------|--------0-0-0-0-|--------0-0-0-0-|
E:--------3-3-3-3-|--------3-3-3-3-|----------------|----------------|

This tab is extremely OK, so enjoy it
            
Submit corrections

comments powered by Disqus
↑ Back to top | Los Prisioneros Bass for Muevan Las Industrias. Lyrics for acoustic guitar and electric guitar. Tablatures and chords are parodies/interpretations of the original songs. You may use it for private study, scholarship, research or language learning purposes only