» » »

LatinoaméRica Es Un Pueblo Al Sur De E.E Bass tabs (ver.1)

Artists:  A B C D E F G H I J K L M N O P Q R S T U V W X Y Z # 

LatinoaméRica Es Un Pueblo Al Sur De E.E Bass tabs (ver.1)

Los Prisioneros
Rating:
0/5 (0 votes)

Tabs too difficult? Try these video lessons and learn fast.
                By Gå®


Verse 1
G[----------7777----9999----9999-----]
D[:-7777--------4-7-----6-9-----6-9-:]
A[:-----4-7-------------------------:]
E[-----------------------------------]


Verse 2
G[-----------------------------------]
D[:---------------------------------:]
A[:-----7-------7---8888--8-7777--7-:]
E[--5555--5-5555--5-----8-------7----]


Verse 3
G[-------------------]
D[:-----------------:]
A[:-----------------:]
E[--55555-0-5---6----]


Verse 4
G[-------------------------------------------------------------------]
D[:-----4-------4-------6-------6-------4-------4-------6-----------:]
A[:-222-----222---2-444-----444---4-222-----222---2-444------44--33-:]
E[-------------------------------------------------------------------]

Verse 5
G[----------------------------------]
D[:---------4-4-4------------------:]
A[:-5-5-5--------------------------:]
E[------------------5-5-5---0---5---]

Verse 6
G[----------------------------------]
D[:---------4-4-4------------------:]
A[:-5-5-5--------------------------:]
E[------------------7---------------]

           


Verse 1	x1
Verse 2	x4
Verse 3	x1
Verse 4	x2
Verse 5	x2
Verse 6	x1
Verse 1	x1
            
Tabs too difficult? Try these video lessons and learn fast.




comments powered by Disqus
↑ Back to top | Tablatures and chords are parodies/interpretations of the original songs. You may use it for private study, scholarship, research or language learning purposes only