» » »

Los Prisioneros, Corazones Rojos Bass tabs (ver.1)

Artists:  A B C D E F G H I J K L M N O P Q R S T U V W X Y Z # 

Corazones Rojos Bass tabs (ver.1)

Los Prisioneros Tabs
Rating:
0/5 (0 votes)
Corazones Rojos lessons Tabs too difficult? Try these video lessons and learn fast
                By Gå®



BEGIN SONG IN MUTE

VERSE

(y no te puedo mirar...)
G[--------------------------------------------------
D[----------------------------------5-3-------------
A[--0-3-5-5-5--0-3-5-----0-3-5-5-5------5-----------
4)--------------------------------------------------

(No estas autorizada...)
G[--------------------------------------------------
D[----------------------------------5-3-------------
A[--0-3-5-5---0-3-5-5-5---0-3-5-5-------5-----------
E[--------------------------------------------------

CHORUS: (Hey!mujeres!...)
G[--------------------------------------------------
D[-------------------------------------------------- x2
A[-5---5-3-5-3-1---1-3-3-5-5-3----------------------
E[--------------------------------------------------
                                     

(Para cuando a veces ...)
G[-3-4-5---------------------------------------------
D[-------3-4-5---------------------------------------
A[-------------3-4-5---------------------------------
E[---------------------------------------------------

CHORUS: (Hey!mujeres!...)
G[--------------------------------------------------
D[-------------------------------------------------- x2
A[-5---5-3-5-3-1---1-3-3-5-5-3----------------------
E[--------------------------------------------------


(Dios así lo quiso...)
G[--------------------------------------------------
D[--------------------------------------------------
A[-5-5-5--5-3-3-3-5-5-3-1-1-1--1-3-3-3-5--5-3------- x...
E[--------------------------------------------------
            

comments powered by Disqus
↑ Back to top | Los Prisioneros Bass for Corazones Rojos. Lyrics for acoustic guitar and electric guitar. Tablatures and chords are parodies/interpretations of the original songs. You may use it for private study, scholarship, research or language learning purposes only