» » »

Corrido Jodido Tabs (ver.1)

Artists:  A B C D E F G H I J K L M N O P Q R S T U V W X Y Z # 

Corrido Jodido Tabs (ver.1)

Los Crudos
Rating:
0/5 (0 votes)

Hard to play? Try these video lessons and learn fast.
                ****************************************************************************




Tuning:Standard




PRELUDE
e|----3-3----3-3----3-3----3-3----3-3-----3-3----3-3-------|
B|----3-3----3-3----3-3----3-3----3-3-----3-3----3-3-------|
G|---------------------------------------------------------|
D|---------------------------------------------------------|
A|---------------------------------------------------------|
E|--3------3------3------3------3------3-------3-----------|

e|----------5-5----5-5----5-5-----------7-7----7-7----7-7---|
B|----------5-5----5-5----5-5-----------7-7----7-7----7-7---|
G|----------------------------------------------------------|
D|----------------------------------------------------------|
A|----------------------------------------------------------|
E|--3-2-3/5------5------5------5-3-5/7-------7------7-------|


e|----------8-8-----10-10-----5-5-----------|
B|----------8-8-----10-10-----5-5-----------|
G|------------------------------------------|REPEATS TWICE
D|------------------------------------------|
A|------------------------------------------|
E|-7-5-7/8-------10--------5-------3-0-2-3--|

1ST VERSE
e|---------------------------------------------------------|
B|---------------------------------------------------------|
G|---------------------------------------------------------|
D|-5-5-5-5-5-5-5-4-7-7-7-7-7-7-7-7-7-7-7-7-7-7-7-7-5-7-----|
A|-5-5-5-5-5-5-5-4-7-7-7-7-7-7-7-7-7-7-7-7-7-7-7-7-5-7-----|
E|-3-3-3-3-3-3-3-2-5-5-5-5-5-5-5-5-5-5-5-5-5-5-5-5-3-5-----|


e|---------------------------------------------------------|
B|---------------------------------------------------------|
G|---------------------------------------------------------|
D|-9-9-9-9-9-9-9-9-9-9-9-9-9-9-9-7-9-10-10-10-10-10-10-10-10
A|-9-9-9-9-9-9-9-9-9-9-9-9-9-9-9-7-9-10-10-10-10-10-10-10-10
E|-7-7-7-7-7-7-7-7-7-7-7-7-7-7-7-5-7-8--8--8--8--8--8--8--8|


e|-------------------------------------------------|
B|-------------------------------------------------|
G|-------------------------------------------------|
D|-7-7-7-7-7-7-7-7-7-2-4-5---Repeat as necessery---|
A|-7-7-7-7-7-7-7-7-7-2-4-5-------------------------|
E|-5-5-5-5-5-5-5-5-5-0-2-3-------------------------|


Solo( this is what i play...still sounds alright)
e|---------------------------------------------------------|
B|-3--3--3--3---5--5--5--5--5--5--5--5---7---7---7---7---7-|
G|-5b75b75b75b7-7b97b97b97b97b97b97b97b9-9b119b119b119b119b11
D|---------------------------------------------------------|
A|---------------------------------------------------------|
E|---------------------------------------------------------|

e|--------------------------------------------|
B|-8---8---8---8------5--5--5--5--3-----------|
G|-8b128b128b128b12---5b75b75b75b73b5 let ring|
D|--------------------------------------------|
A|--------------------------------------------|
E|--------------------------------------------|


1ST VERSE AGAIN

END VERSE (same as first but with a slight variation at the end)
e|--------------------------------------------------------|
B|--------------------------------------------------------|
G|-7-------------------------REPEAT-----------------------|
D|-7-7-7-7-7--2--4--5-5-5-5--TWICE------------------------|
A|-5-7-7-7-7--2--4--5-5-5-5-------------------------------|
E|---5-5-5-5--0--2--3-3-3-3-------------------------------|





b=bend
            
Hard to play? Try these video lessons and learn fast. | Correct




comments powered by Disqus
↑ Back to top | Tablatures and chords are parodies/interpretations of the original songs. You may use it for private study, scholarship, research or language learning purposes only